» » »

O Come, O Come, Emmanuel Tabs (ver.1)

Artists:  A B C D E F G H I J K L M N O P Q R S T U V W X Y Z # 

O Come, O Come, Emmanuel Tabs (ver.1)

Christmas Songs
Rating:
0/5 (0 votes)

Hard to play? Try these video lessons and learn fast.
                Verse:
E----------------------------------------------------------
B------0-0---1-0-------0---------------------------0-------
G----0-----2-----2-0-2---0---0-2---------2-2---------------
D--1-----------------------1-----3-1-0-1-----1-1-3---3-1-0-
A----------------------------------------------------------
E----------------------------------------------------------

E-----------------------|
B------0-0-0---1-0------|
G--0-2-------2-----2-0--|
D-----------------------|
A-----------------------|
E-----------------------|


Chorus:

E-------------------------------------------|
B--3-3-0-0-0---1-0-------0------------------|
G------------2-----2-0-2---0---0-2----------|
D----------------------------1-----3-1-0-1--|
A-------------------------------------------|
E-------------------------------------------|

Verse:
O come, O come, Emmanuel,
And ransom captive Israel, 
That mourns in lonely exile here. 
Until the Son of God appear.

Chorus:
Rejoice! Rejoice! Emmanuel
Shall come to thee, O Israel!
            
Hard to play? Try these video lessons and learn fast. | Correct




comments powered by Disqus
↑ Back to top | Tablatures and chords are parodies/interpretations of the original songs. You may use it for private study, scholarship, research or language learning purposes only