» » »

Christmas Songs, Deck The Halls Tabs (ver.1)

Artists:  A B C D E F G H I J K L M N O P Q R S T U V W X Y Z # 

Deck The Halls Tabs (ver.1)

Christmas Songs Tabs
 Rating:
4/5 (4 votes)
Deck The Halls lessons Tabs too difficult? Try these video lessons and learn fast
                			     Deck The Halls


I’ve submitted a lot of these lately.  You know in the holiday spirit.  Have fun.
This should be pretty much perfect.  Once again just a simple little version.

e|---------------------------------------------------------------------------|
B|---------------------------------------------------------------------------|
G|--5-----3-----2------------------------------------------------------------|
D|---------------------5-----3------5---7---3--------------------------------|
A|---------------------------------------------------------------------------|
E|---------------------------------------------------------------------------|
   Deck  the  halls  with  boughs  of  hol-ly

e|---------------------------------------------------------------------------|
B|---------------------------------------------------------------------------|
G|---------------------------------------------------------------------------|
D|--5---7---9---5---7------5---3---2---3-------------------------------------|
A|---------------------------------------------------------------------------|
E|---------------------------------------------------------------------------|
   Fa  la  la  la  la     la  la  la  la   

e|---------------------------------------------------------------------------|
B|---------------------------------------------------------------------------|
G|--5-----3-----2------------------------------------------------------------|
D|-------------------5-----3------5---7---3--------------------------------|
A|---------------------------------------------------------------------------|
E|---------------------------------------------------------------------------|
   Tis   the   seas-on    to     be  jol-ly

e|---------------------------------------------------------------------------|
B|---------------------------------------------------------------------------|
G|---------------------------------------------------------------------------|
D|--5---7---9---5---7------5---3---2---3-------------------------------------|
A|---------------------------------------------------------------------------|
E|---------------------------------------------------------------------------|
   Fa  la  la  la  la     la  la  la  la   

e|---------------------------------------------------------------------------|
B|---------------------------------------------------------------------------|
G|---------------------------------------------------------------------------|
D|--5----7---9----5----7----9--10--5-----------------------------------------|
A|---------------------------------------------------------------------------|
E|---------------------------------------------------------------------------|
   Don  we  now  our  gay  ap-par-el

e|---------------------------------------------------------------------------|
B|---------------------------------------------------------------------------|
G|------------------7---9--10------9---7---5---------------------------------|
D|--7---9—-10-----------------------------------------------------------------|
A|---------------------------------------------------------------------------|
E|---------------------------------------------------------------------------|
   Fa  la  la      la  la  la     la  la  la


e|---------------------------------------------------------------------------|
B|---------------------------------------------------------------------------|
G|--5------3----2------------------------------------------------------------|
D|------------------5-----3-----5-----7--3-----------------------------------|
A|---------------------------------------------------------------------------|
E|---------------------------------------------------------------------------|
   Troll  the  an-cient  yule  tide  car-ol    

e|---------------------------------------------------------------------------|
B|---------------------------------------------------------------------------|
G|---------------------------------------------------------------------------|
D|--5---7---9---5---7------5---3---2---3-------------------------------------|
A|---------------------------------------------------------------------------|
E|---------------------------------------------------------------------------|
   Fa  la  la  la  la     la  la  la  la   


There it is.  The verses just repeat like that.  Merry Christmas!
            
Submit corrections

comments powered by Disqus
↑ Back to top | Christmas Songs Tabs for Deck The Halls. Lyrics for acoustic guitar and electric guitar. Tablatures and chords are parodies/interpretations of the original songs. You may use it for private study, scholarship, research or language learning purposes only