» » »

Away In A Manger Tabs (ver.1)

Artists:  A B C D E F G H I J K L M N O P Q R S T U V W X Y Z # 

Away In A Manger Tabs (ver.1)

Christmas Songs
Rating:
0/5 (0 votes)

Hard to play? Try these video lessons and learn fast.
                AWAY IN A MANGER
Traditional Christmas


---Key of E---


A(E)way in a manger, no (A) crib for a (E) bed,
The (B7) little Lord Jesus laid (E) down His sweet head.
The stars in the sky looked (A) down where He (E) lay,
The (B7) little Lord (E) Jesus, asleep on the hay.

The (E) cattle are lowing, the (A) Baby a(E)wakes,
But (B7) little Lord Jesus, no (E) crying He makes;
I love Thee, Lord Jesus, look (A) down from the (E) sky
And (B7) stay by my cr(E)adle til morning is nigh.

Intrumental:

   (E)                    (A)                  (B7)
  
E---7--7---5p4----4--2--0--0-------------------------------------2----
B-----------------------------4--2--0------0----0-----2--0----0-------
G---------------------------------------1-----------2-----------------
D---------------------------------------------------------------------
A--------------------------0--------------------2-------------2-------
E-- 0--0----------0--2--4-----------0---------------------------------

        (E)                                     (A)       (E)
  
E---------------0--4-----7--7----5p4--4--2--0----0--------------------
B---4----2--0------------------------------------2---4--2--0------0---
G--------------------------------------------------------------1------
D---------------------------------------------------------------------
A---2--------------------------------------------0--------------------
E--------0------4--0-----0--0---------0--2--4--------------0----------

   (B7)         (E)   

E---5-----4------4---2---0---2---------0-------
B------------7-------------------2--4----------
G------4---------------------------------------
D----------------------------------------------
A---6----------------------------------2-------
E----------------0-------4---------------------


Be (E) near me, Lord Jesus, I (A) ask Thee to (E) stay
Close (B7) by me forever, and (E) love me, I pray;
Bless all the dear children in (A) Thy tender (E) care,
And (B7) fit us for (E) heaven to live with Thee there.

A(E)way in a manger, no (A) crib for a (E) bed,
The (B7) little Lord Jesus laid (E) down His sweet head.
The stars in the sky looked (A) down where He (E) lay,
The (B7) little Lord (E) Jesus, asleep on the hay.
The (B7) little Lord (E) Jesus, asleep on the hay.

   (E)                    (A)                  (B7)
  
E---7--7---5p4----4--2--0--0-------------------------------------2----
B-----------------------------4--2--0------0----0-----2--0----0-------
G---------------------------------------1-----------2-----------------
D---------------------------------------------------------------------
A--------------------------0--------------------2-------------2-------
E-- 0--0----------0--2--4-----------0---------------------------------

        (E)                                     (A)       (E)
  
E---------------0--4-----7--7----5p4--4--2--0----0--------------------
B---4----2--0------------------------------------2---4--2--0------0---
G--------------------------------------------------------------1------
D---------------------------------------------------------------------
A---2--------------------------------------------0--------------------
E--------0------4--0-----0--0---------0--2--4--------------0----------

   (B7)         (E)   

E---5-----4------4---2---0---2---------0-------
B------------7-------------------2--4----------
G------4---------------------------------------
D----------------------------------------------
A---6----------------------------------2-------
E----------------0-------4---------------------




            
Hard to play? Try these video lessons and learn fast. | Correct




comments powered by Disqus
↑ Back to top | Tablatures and chords are parodies/interpretations of the original songs. You may use it for private study, scholarship, research or language learning purposes only