» » »

Silent Night Tabs (ver.1)

Artists:  A B C D E F G H I J K L M N O P Q R S T U V W X Y Z # 

Silent Night Tabs (ver.1)

Christmas
Rating:
0/5 (0 votes)

Hard to play? Try these video lessons and learn fast.
                Christmas is coming, did you think to the little guitar demo, near the christmas tree,
all your family around would request (I'm thinking to beginners) ?

Playing the last death riff of a 'killer metallic group' with your grand-parents
is maybe not the best to do ...

As many of you requested, here is the classical christmas hit 'silent night'.

This version is simpler than the others you can find at nevada's ftp site.
(it is maybe not exact, but it sounds well).

    SILENT NIGHT

||-0---2p0---------|-0---2p0---------|-7---7---4-------|-5---5---0-------|
||----------2------|----------2------|-----------------|-----------------|
||-----------------|-----------------|-----------------|-----------------|
||-----------------|-----------------|-----------------|-----------------|
||-0--------0------|-0--------0------|-----------------|-0-------0-------|
||-----------------|-----------------|-0-------0-------|-----------------|


 |-2--2--5---4--2--|-0---2p0---------|-2--2--5---4--2--|-0---2p0---------|
 |-----------------|----------2------|-----------------|----------2------|
 |-----------------|-----------------|-----------------|-----------------|
 |-0--0------------|-----------------|-0--0------------|-----------------|
 |-------0---------|-0--------0------|-------0---------|-0--------0------|
 |-----------------|-----------------|-----------------|-----------------|


 |-7--7--10--7--4--|-5--5---9--------|-5--------0------|-------------0---|
 |-----------------|-----------------|----5------------|-3--0--------2---|
 |-----------------|-----------------|-------6---------|--------2----2---|
 |-----------------|-----------------|-----------------|----------or-2---|
 |-----------------|-0------0--------|-0---------------|--------0----0---|
 |-0-----0---------|-----------------|----------0------|-----------------|

Suggestions are Welcome !
Merry Christmas !


______________________________________________________________

  MFI -  23-25, rue Jean Rostand - 91893 Orsay Cedex - FRANCE 
   Tel: 33 (1) 69 41 83 47 - Fax: 33 (1) 69 41 83 51

         Real programmers use: COPY CON PROGRAM.EXE
______________________________________________________________
            
Hard to play? Try these video lessons and learn fast. | Correct




comments powered by Disqus
↑ Back to top | Tablatures and chords are parodies/interpretations of the original songs. You may use it for private study, scholarship, research or language learning purposes only