» » »

Christina Perri, A Thousand Years Tabs (ver.4)

Artists:  A B C D E F G H I J K L M N O P Q R S T U V W X Y Z # 

A Thousand Years Tabs (ver.4)

Christina Perri Tabs
Rating:
5/5 (4 votes)
A Thousand Years lessons Tabs too difficult? Try these video lessons and learn fast
                (Intro)
Intro : A Thousand Years \m/
Special Thanks to: Chastin ( For Singing this song everyday even I only  tabbed the
intro part xD )
                            : Kier       (For the Capo :D )
                            : S** (as my inspiration) xD
    Standard Tunning
(Capo 3rd Fret )



|------4------------4------------4---------2----------4------------4------------4------|
|------5------------5------------5--------------------5------------5------------5------|
|--------------------------------------------------------------------------------------|
|--------------------------------------------------------------------------------------|
|------7-----------------------------------6-------------------------------------------|
|-----------------------------------------------------0--------------------------------|



|------2--------5------------5------------5-------4-------- 4----4-----5----------3---2------|
|------5--------2------------2------------2-----------------5----5---- 3----------3-------3--|
|---------------2------------------------------------------ 4--------- 2---------------------|
|----------------------------------------------------------------------0---------------------|
|--------------------------------------------------------------------------------------------|
|--------------------------------------------------------------------------------------------|


I Love You S** :)
            

comments powered by Disqus
↑ Back to top | Christina Perri Tabs for A Thousand Years. Lyrics for acoustic guitar and electric guitar. Tablatures and chords are parodies/interpretations of the original songs. You may use it for private study, scholarship, research or language learning purposes only