» » »

A Thousand Years Tabs (ver.9)

Artists:  A B C D E F G H I J K L M N O P Q R S T U V W X Y Z # 

A Thousand Years Tabs (ver.9)

Christina Perri
Rating:
0/5 (0 votes)

Hard to play? Try these video lessons and learn fast.
                
"Twilight - Breaking Dawn" Soundtrack




Capo 3rd


C9     032030
Em7*   x20030
Em7    022030
F#/D9  200230
Gsus2  300030
Am7    x02010
Am7/6  X02012
Em     022000
G      320033
F#/Asus4 200200
C      032010
C/Dsus 030012
Csus7  030013
Dsus4  xx0233
D      xx0232
D/C    X30032
D4/C   X30033
D4/G   300032
Em/Gb  022002


Intro: 

e|-3-------3------3-------2h0-----0-----------------------------------|
B|-----3--------3-----3---------3-----0---0---0---0-------0-0-0---0---|
G|---0---0----0-----0---0-----0-----0---0---0---0-------0-------0---0-|
D|--------------------------------2-------2---------2h4-----4-5-------|
A|---------2--------------------0-------------------------------------|
E|-3--------------3---------------------------------------------------|


e|---------0------2-------3----3-------3-----2-------3-2--------------|
B|-1---1--------1-----1------1-----3-------3-----3-------3------------|
G|---0---0----0-----0---0--0-----2---2---2-----2---2------------------|
D|-----------------------------0-------0-----0------------------------|
A|-3-------3------3-------3-------------------------------------------|
E|--------------------------------------------------------------------|



Verse 1 :

e|--------------------------------------------------------------------|
B|-------3---------------------------3------------------3-------------|
G|---0-------0---x4--------------0-------0---x4-----0-------0---x2----|
D|-----2---2-----------------------0---0--------------2---2-----------|
A|-3---------------------------2------------------2-------------------|
E|--------------------------------------------------------------------|
  Heart beats fast Colors and promises How to be  brave How can I



e|--------------------------------------------------------------------|
B|-------3-----------3------------------------------------------------|
G|---2-------2---0----------------------------------------------------|
D|-----0---0-------0---0----------------------------------------------|
A|--------------------------------------------------------------------|
E|-2-----------3------------------------------------------------------|
   love when   I'm af-



e|--------------------------------------------------------------------|
B|-------3------------------------------3--------------------3--------|
G|---0-------0---x4-----------------0-------0---x4-------0-------0--x2|
D|-----2---2--------------------------0---0----------------2---2------|
A|-3------------------------------2--------------------2--------------|
E|--------------------------------------------------------------------|
 -raid to fall,but watching you stand alone all of my doubt suddnly 



e|--------------------------------------------------------------------|
B|-------3-----------3------------------------------------------------|
G|---2-------2---0----------------------------------------------------|
D|-----0---0-------0---0----------------------------------------------|
A|--------------------------------------------------------------------|
E|-2-----------3------------------------------------------------------|
   gose        away some-

 Am7    
-how  


P. Chours:

Am7 Am7/6 Em    F#/D9
One step  clooooser

Chours:

G                            F#/D9
I have died everyday waiting for you
Em                             F#/Asus4
Darling don't be afraid I have loved you
      C   C/Dsus Csus7
For a thousand   years
                    Dsus4    D
I'll love you for a thousand more

C9 D/C D4/C


Verse 2 :

C9
Time stands still
          Em7*
Beauty in all she is
          Em7
I will be brave
           F#/D9  Gsus2      
I will not let   anything 
C9
take away
                   Em7*
What's standing in front of me
      Em7
Every breath
      F#/D9    Gsus2   Am7
Every hour has come to this

Am7 Am7/6  Em   F#/D9
One step   clooooser

G                            F#/D9
I have died everyday waiting for you
Em                             F#/Asus4
Darling don't be afraid I have loved you
      C   C/Dsus Csus7
For a thousand   years
                    Dsus4    D
I'll love you for a thousand more


    G                            F#/D9
And all along I believed I would find you
Em 
Time has brought your heart to me
       F#/Asus4        C   C/Dsus Csus7
I have loved you for a thousand   years
                    Dsus4     D
I'll love you for a thousand more


G D4/G F#/D9 Em Em/Gb Em C C/Dsus Csus7 Dsus4 D  


Am7        Em    F#/D9
One step   clooooser

Am7 Am7/6  Em    D
One step   clooooser


G                            F#/D9
I have died everyday waiting for you
Em                             F#/Asus4
Darling don't be afraid I have loved you
      C   C/Dsus Csus7
For a thousand   years
                    Dsus4    D
I'll love you for a thousand more


    G                            F#/D9
And all along I believed I would find you
Em 
Time has brought your heart to me
       F#/Asus4        C   C/Dsus Csus7
I have loved you for a thousand   years
                    Dsus4     D
I'll love you for a thousand more

Outro (LIKE THE INTRO)

C9....
            
Hard to play? Try these video lessons and learn fast. | Correct




comments powered by Disqus
↑ Back to top | Tablatures and chords are parodies/interpretations of the original songs. You may use it for private study, scholarship, research or language learning purposes only