» » »

Christina Perri, A Thousand Years Tabs (ver.7)

Artists:  A B C D E F G H I J K L M N O P Q R S T U V W X Y Z # 

A Thousand Years Tabs (ver.7)

Christina Perri Tabs
Rating:
0/5 (0 votes)
A Thousand Years lessons Tabs too difficult? Try these video lessons and learn fast
                Capo 3

Intro: G  D  Em7  D  Cadd9  G/B  D

     Cadd9(x4)                G/B (x4)                Em7(x2)
e|----------------------|----------------------|----------------------|
B|------------3---------|------------3---------|------------3---------|
G|------0-----------0---|------0-----------0---|------0-----------0---|
D|----------------------|----------------------|----------------------|
A|---3-----3-----3------|---2-----2-----2------|----------------------|
E|----------------------|----------------------|---0-----0-----0------|
    D/F#m                G
e|------------------------------------------|
B|------------3-------------------3---------|
G|------0-----------0-------0-----------0---| 
D|------------------------------------------|
A|------------------------------------------|
E|---2-----2-----2-------3-----3-----3------|


Verse 1:

Cadd9 
Heartbeats fas
                G/B
Colours and promises
               Em
How to be brave
        D/fis
How can I love when I’m afraid to fall
Cadd9
But watching you stand alone
        G/B
All of my doubt suddenly goes away somehow
         D/fis  G
One step closer

Chorus:

Cadd9
I have died everyday waiting for you 
G/B
Darling don’t be afraid I have loved you 
Em
For a thousand years
        D/fis   G
I love you for a thousand more

Verse 2:

Cadd9
Time stands stil
                 G/B
Beauty in all she is
              Em
I will be brave 
                                    D/fis
I will not let anything take away
                                Cadd9
What’s standing in front of me
G/B
Every breath 
           Em
Every hour has come to this
        G/B  G
One step closer
Chorus:

Cadd9
I have died every day waiting for you
G/B
Darling don’t be afraid I have loved you 
       Em 
For a thousand years
        D/fis         G 
I love you for a thousand more
Cadd9
And all along I believed I would find you
G/B
Time has brought your heart to me I have loved you
       Em
For a thousand years
        D/fis       G
I love you for a thousand more

Cadd9  G/B  Em  D/fis  G

Cadd9    G/B G
One step closer
G/B     D/fis  G
One step closer

Chorus:

Cadd9 
I have died everyday waiting for you 
G/B
Darling don’t be afraid I have loved you
       Em
For a thousand years
        D/fis       G
I love you for a thousand more 


Chords:

  Cadd9  G/B   Em7  D/F#m   G    Am    Em     D   Dsus4
e|--3--|--3--|--3--|--3--|--3--|--0--|--0--|--2--|--3--|
B|--3--|--3--|--3--|--3--|--3--|--1--|--0--|--3--|--3--|
G|--0--|--0--|--0--|--2--|--0--|--2--|--0--|--2--|--2--|
D|--2--|--0--|--2--|--0--|--0--|--2--|--2--|--0--|--0--|
A|--3--|--2--|--2--|--0--|--2--|--0--|--2--|--x--|--x--|
E|--x--|--x--|--0--|--2--|--3--|--x--|--0--|--x--|--x--|


This is my first tab. I hope you enjoy!:)
            
Submit corrections

comments powered by Disqus
↑ Back to top | Christina Perri Tabs for A Thousand Years. Lyrics for acoustic guitar and electric guitar. Tablatures and chords are parodies/interpretations of the original songs. You may use it for private study, scholarship, research or language learning purposes only