» » »

Christina Perri, A Thousand Years Chords (ver.2)

Artists:  A B C D E F G H I J K L M N O P Q R S T U V W X Y Z # 

A Thousand Years Chords (ver.2)

Christina Perri Tabs
Rating:
4/5 (8 votes)
A Thousand Years lessons Tabs too difficult? Try these video lessons and learn fast
                Song Title: A Thousand Years
capo on 3rd fret


Chords:(Relative to capo)
  Cadd9   B    Em1  D/F#m   G    Am    Em2    D   Dsus4
e|--3--|--3--|--3--|--3--|--3--|--0--|--0--|--2--|--3--|
B|--3--|--3--|--3--|--3--|--3--|--1--|--0--|--3--|--3--|
G|--0--|--0--|--0--|--2--|--0--|--2--|--0--|--2--|--2--|
D|--2--|--0--|--2--|--0--|--0--|--2--|--2--|--0--|--0--|
A|--3--|--2--|--2--|--0--|--2--|--0--|--2--|--x--|--x--|
E|--x--|--x--|--0--|--2--|--3--|--x--|--0--|--x--|--x--|

Intro:
e|-----7--7--7--5--7--7--7--5--8--8--8-----5--7--7--5---------------|
B|-----8--8--8--7--5--5--5--3--8--8--8--8-----8--8--7--8--7---------|
G|-----------------------------------------------------------7\-----|
D|------------------------------------------------------------------|
A|------------------------------------------------------------------|
E|------------------------------------------------------------------|

Verse:
     Cadd9(x4)                 B (x4)                Em1(x2)
e|----------------------|----------------------|----------------------|
B|------------3---------|------------3---------|------------3---------|
G|------0-----------0---|------0-----------0---|------0-----------0---|
D|---------2------------|---------0------------|---------2------------|
A|---3------------------|---2------------------|----------------------|
E|----------------------|----------------------|---0------------------|
    D/F#m                G
e|------------------------------------------|
B|------------3-------------------3---------|
G|------0-----------0-------0-----------0---| 
D|---------0-------------------0------------|
A|------------------------------------------|
E|---2-------------------3------------------|


 C
Heart beats fast
           B 
Colors and promises 
           Em1
How to be brave 
          D/F#m      G    Cadd9
How can I love when I'm afraid to fall 
                 B
But watching you stand alone
           Em1           D/F#m  G       Am
All of my doubt suddenly goes away somehow 
          Em2  D  once
One step clo  ser 

G                            D/F#m
I have died everyday waiting for you
Em1                             D       
Darling don't be afraid I have loved you 
      Cadd9
For a thousand years 
                  Dsus4    D  once
I love you for a thousand more 


Cadd9...


Cadd9
Time stands still
          B
Beauty in all she is 
          Em1  
I will be brave
           D/F#m G       Cadd9
I will not let anything take away 
                     B
What's standing in front of me 
      Em1
Every breath
      D/F#m     G       Am
Every hour has come to this 
          Em2   D  once
One step clo  ser
 

G                            D/F#m
I have died everyday waiting for you
Em1                             D       
Darling don't be afraid I have loved you 
      Cadd9
For a thousand years 
                  Dsus4    D 
I love you for a thousand more 

G                                 D/F#m
'nd all along I believed I would find you
Em1                           
Time has brought your heart to me 
        D               Cadd9
I have loved you for a thousand years 
                     Dsus4    D
I'll love you for a thousand more 


G D/F#m Em1 D Cadd9 Dsus4 D


Am          Em2 D 
 One step clo  ser
Am          Em2 D
 One step clo  ser 

G                            D/F#m
I have died everyday waiting for you
Em1                             D       
Darling don't be afraid I have loved you 
      Cadd9
For a thousand years 
                  Dsus4    D 
I love you for a thousand more 

G                                 D/F#m
'nd all along I believed I would find you
Em1                           
Time has brought your heart to me 
        D               Cadd9
I have loved you for a thousand years 
                     Dsus4    D
I'll love you for a thousand more 

G D/F#m Em1 D Cadd9 Dsus4 D

G...


:::::::::::::::::::::::::::::::::::::::::::::::::::::::::::::::::::::
please rate and/or comment :D
::by: amiappreciated ::::::::::::::::::::::::::::::::::::::::::::::::
            

comments powered by Disqus
↑ Back to top | Christina Perri Chords for A Thousand Years. Lyrics for acoustic guitar and electric guitar. Tablatures and chords are parodies/interpretations of the original songs. You may use it for private study, scholarship, research or language learning purposes only