>
 >
Hurt

Hurt Guitar Tabs

Christina Aguilera - Hurt chords, tabs, tablatures, lyrics

Guitar lessons | Add/correct | Request | Top 50 tabs Artists:  A B C D E F G H I J K L M N O P Q R S T U V W X Y Z 0-9

Hurt Guitar Tabs – Christina Aguilera

CD, Sheet music, Poster

Do you like Hurt? Share with your friends now
ChordsChords v2Chords v3Chords v4Chords v5TabsTabs v2Ukulele
-----------------------------------------------------------------------
                             HURT Ė Christina Aguilera
-----------------------------------------------------------------------
Tuning: Standard

Hereís a version consisting mostly of the chords. After tabbing it
I think Iíve found good chords for the bridge and Iíve done my best
to line up the chord changes with the words. Iíve included the tabbed 
intro and violin solo as well.
                           
INTRO:
 (Em)              (B/D#)          (Em)              (C)
e|3---0---3---0---|2-------2-------|3---0---3---0---|5---3---2---3---|
B|--0---0---0---0-|--0-4-----0-4---|--0---0---0---0-|----------------|
G|----------------|------4-------4-|----------------|--0---0---0---0-|
D|2---------------|1---------------|2---------------|----------------|
A|----------------|----------------|----------------|3---------------|
E|----------------|----------------|----------------|----------------|

 (A)              (B)
e|3---0---3---0---|2-------2-------|
B|----------------|----4-------4---|
G|----------------|----------------|
D|--2---2---2---2-|--4---4---4---4-|
A|0---------------|2---------------|
E|----------------|----------------|

VERSE 1: Same as intro
Em                  B/D#            
  Seems like it was yesterday when I saw your face
Em                  C                          
  You told me how proud you were, but I walked away
Am              B
  If only I knew what I know today

      Ooooooo
  (Em)
e|3---0---5---0---|7---7---5---3---|
B|--0---0---0---0-|--0---0-5---5---|
G|----------------|----------4---4-|
D|2---------------|----------------|
A|----------------|----------------|
E|----------------|----------------|

PRE-CHORUS:
        C                           A/C#
I would hold you in my arms I would take the pain away
D                                 B/D#
Thank you for all you've done, forgive all your mistakes
        C                        A/C#
There's nothing I wouldn't do to hear your voice again
    D                            B/D#
Sometimes I wanna call you but I know you wonít be there

CHORUS:
Em                B/D#            Em           C             
  Woah, I'm sorry for, blaming you   for everything I couldnít do
Am             B                 Em
  and I hurt myself, by hurting you

Verse 2: (same as first verse)
(Em)                B/D#                     
  Some days I feel broke inside but I won't admit
Em                 C                    
  Sometimes I just wanna hide cause it's you I miss
Am                            B
  And it's so hard to say goodbye, when it comes to this
Em
  Oooooo....ay....

PRE-CHORUS 2:
          C                              A/C#
Would you tell me I was wrong? Would you help me understand?
        D                             B/D#
Are you looking down upon me? Are you proud of who I am?
        C                        A/C#
There's nothing I wouldn't do to have just one more chance
   D                       B/D#
To look into your eyes and see you looking back

CHORUS:
Em                B/D#            Em           C             
  Woah, I'm sorry for, blaming you   for everything I couldnít do
Am              B                
  and Iíve hurt myself, Ohh...

BRIDGE:
Em     Em/D              Em/C
  If I had just one more day 
        Em                          Em/D                         Em/C
I would tell you how much that I've missed you since you've been away
Am            Caug/G#               C/G  F#dim7                B     
Ohh it's dangerous...it's so out of line   to try to turn back time

FINAL CHORUS:
Em                B/D#            Em           C             
  Woah, I'm sorry for, blaming you   for everything I couldnít do
Am             B      C            B               Em5
  and I hurt myself  (Violin solo)  by hurting you

VIOLIN SOLO:
  v . v . v . v .  v . v .    v . v .     by hurting you...
e|--------7---8---|------10-8-7--------|7---------------|
B|------8---------|---------------8-10-|----------------|
G|----9-----------|--------------------|----------------|
D|--10------------|--------------------|----------------|
A|----------------|--------------------|----------------|
E|----------------|--------------------|----------------|

CHORDS:
C:       x32010 or x35553
Caug/G#: 4x6554
Em:      xx2000 or xx2453
Em/D:    xx0453
Em/C:    x3x453  
Em5:     022x00
F#dim7:  234242
A:       x02220 
A/C#:    x42225
Am:      577555
B:       x24442
B/D#:    xx1442 or x64447

| /  slide up
| \  slide down
| h  hammer-on
| p  pull-off
| ~  vibrato
| +  harmonic
| x  Mute note
=======================================================================





Comments


Popular Christina Aguilera tabs & chords
Genie In A Bottle 1 Chords
Infatuation 1 Chords
Sing For Me Chords
Somethings Got A Hold On Me Chords
Your Body 2 Chords
Army Of Me Ukulele
Candyman Ukulele
Come On Over Ukulele
Dynamite Ukulele
Hello Ukulele


Song lyrics



↑ Back to top | Tablatures and chords are parodies/interpretations of the original songs. You may use it for private study, scholarship, research or language learning purposes only
© 2014 AZChords.com Contact us | Privacy policy | DMCA | Add/correct tabs | Request tabs | Top 50 tabs