» » »

Christian Songs, Amazing Grace Lead Tabs (ver.1)

Artists:  A B C D E F G H I J K L M N O P Q R S T U V W X Y Z # 

Amazing Grace Lead Tabs (ver.1)

Christian Songs Tabs
 Rating:
4/5 (5 votes)
Amazing Grace Lead lessons Tabs too difficult? Try these video lessons and learn fast
                "(Guitar)
Copyright: © 1715 - John Newton

Standard Tuning: (e)

Lead Guitar 
(This Tab leaves plenty of room for sliding and bending)  

e|-----------------12-------12------12-----------------------------------
b|--------13----------15-13------15----15-13-----------------------------
g|-12------------------------------------------14-12---------------------
d|-----------------------------------------------------------------------
a|-----------------------------------------------------------------------
E|-----------------------------------------------------------------------
                                                                              

e|-----------------12------12------12-15------12-15-15----12-------12----
b|--------13---------15-13------15---------------------------15-13-------
g|-12--------------------------------------------------------------------
d|-----------------------------------------------------------------------
a|-----------------------------------------------------------------------
E|-----------------------------------------------------------------------
                                                                              

e|--------------|-----------------12-------12--------------|
b|--15-13-------|--------13----------15-13----------15--13-|
g|--------14-12-|-12---------------------------------------|
d|--------------|------------------------------------------|
a|--------------|------------------------------------------|
E|--------------|------------------------------------------|
"            
Submit corrections

comments powered by Disqus
↑ Back to top | Christian Songs Tabs for Amazing Grace Lead. Lyrics for acoustic guitar and electric guitar. Tablatures and chords are parodies/interpretations of the original songs. You may use it for private study, scholarship, research or language learning purposes only