>
 >
Thank You Intro

Thank You Intro Guitar Tabs

Christian City Church Oxford Falls - Thank You Intro chords, tabs, tablatures, lyrics

Guitar lessons | Add/correct | Request | Top 50 tabs Artists:  A B C D E F G H I J K L M N O P Q R S T U V W X Y Z 0-9

Thank You Intro Guitar Tabs – Christian City Church Oxford Falls

CD, Sheet music, Poster

Do you like Thank You Intro? Share with your friends now
Tabs
~Thank You by Christian City Church Oxford Falls~

Credit to Jonathan Busch (Brother, he doesn't have an account, or the time!)


BTW, this is a basic version of it, we can't get it any more accurate, listen to the 
for better rhythm


Part 1
                          Part 2 (x3)
E------------|--------------------------------------------------------|
A------------|--------------------------------------------------------|
D------------|-----7-------------9-----------------11-----------------|
G------------|--------------------------------------------------------|
B------------|-------9-9---9--------9-9---9-------------9-9----9------|
E-11h12-11---|-----9-----9--------------9--------------------9--------|


Part 3

E-------------------------------------------------------|
A-------------------------------------------------------|
D-------------------------------------------------------|
G-------------------------------------------------------|
B9s10-7-4-7--4--10-7-4---------------------------------|
E-------------------------------------------------------|

Thanks for reading!





Comments


Popular Christian City Church Oxford Falls tabs & chords
Lift Prelude Bass Tabs
Help Me Chords
I Will Magnify You Chords
Unashamed Intro Tabs
Help Me Ukulele
I Will Magnify You Ukulele


Song lyrics



↑ Back to top | Tablatures and chords are parodies/interpretations of the original songs. You may use it for private study, scholarship, research or language learning purposes only
© 2014 AZChords.com Contact us | Privacy policy | DMCA | Add/correct tabs | Request tabs | Top 50 tabs