» » »

Christian, O Come All Ye Faithful Bass tabs (ver.1)

Artists:  A B C D E F G H I J K L M N O P Q R S T U V W X Y Z # 

O Come All Ye Faithful Bass tabs (ver.1)

Christian Tabs
 Rating:
2.9/5 (9 votes)
O Come All Ye Faithful lessons Tabs too difficult? Try these video lessons and learn fast
1
                This is a popular Christmas song. And I'm pretty sure it's 100% correct

Verse:

1. (O come, All ye faithful, Joyful and triumphant)
2. (Sing, choirs of Angels, Sing in exaultation!)
3. (Yea, LORD we greet thee, born this happy morning)

G|---------------------------------------------------------------------------|
D|----------------------------------0-----0---2-0----------------------------|
A|-2--2-----2--3-----------------------3----------3--------------------------|
E|-------1-------1-----------------------------------------------------------|

Verse(cont...)
1. (O come ye, oh come, to beth ,lehem)
2. (Sing all ye citizens of Heaven, above)
3. (Jesus, to the Father, Now in Flesh appearing)

G|---------------------------------------------------------------------------|
D|---------------------------------------------------------------------------|
A|-2--2--0--------0---3--------5-0-------------------------------------------|
E|-------------3--------------------------1--1-------------------------------|

Verse(cont..)
1. (Come and behold him, Born the king of Angels)
2. (Glory to God, All Glory in the Highest)
3. (Word of the Father, now in Flesh appearing)

G|---------------------------------------------------------------------------|
D|-3--2--0--2--0----------------0--------------------------------------------|
A|---------------------------3-----2--3--0-----------------------------------|
E|-----------------------------------------1---------------------------------|

Chorus:
"Oh come, Let us adore Him, Oh come let us adore Him, Oh come let us adore Him Christ The Lord!"

G|--------------------------------------------------------------------------|
D|-------------------0-0---0-20------0-2-0-------2-----0--------------------|
A|-2-2-0-2-32------------3------3-----------3---2---------2-2---------------|
E|-------------1------------------------------------------------------------|
            
Submit corrections

comments powered by Disqus
↑ Back to top | Christian Bass for O Come All Ye Faithful. Lyrics for acoustic guitar and electric guitar. 1 Tablatures and chords are parodies/interpretations of the original songs. You may use it for private study, scholarship, research or language learning purposes only