» » »

Christensen Tim, Time Is The Space Betweeen Us Tabs (ver.1)

Artists:  A B C D E F G H I J K L M N O P Q R S T U V W X Y Z # 

Time Is The Space Betweeen Us Tabs (ver.1)

Christensen Tim Tabs
 Rating:
4/5 (4 votes)
Time Is The Space Betweeen Us lessons Tabs too difficult? Try these video lessons and learn fast
                Tim Christensen - Time Is The Space Between Us
      
Intro.
---x-----x-----x--                
---x-----x-----x--                
---x-----x-----x--                
---2-----4-----5--                
---2-----4-----5--                
---0-----2-----3--                

--------------------------------------g
--------------------------------------e
--------------------------------------n
---3--4--4--4--4^7---5--6--6--6--3--t
---x--x--x--x---x^x---x--x--x--x--x--a
---4--5--5--5--5^8---6--7--7--7--4--g

---------------------------------------------
---------------------------------------------
---------------------------------------------
---3--2--2--2--------------------------------
---x--x--x--x----------7------------7-----6---
---4--3--3--3-----3^5-----3---3^5-----3------

Verse.
------------------------------------g--g--g
------------------------------------e--e--e
---9---9---9---9---6---6---6---6---n--n--n
---9---9---9---9---8---8---8---8---t--t--t
------------------------------------a--a--a
------------------------------------g--g--g

-----------------        
-----------------        
-----------------        
---4---4---4---4-        
---x---x---x---x-        
---5---5---6---6-        

g----------------------------g
e----------------------------e
n----------------------------n
t--7--7-----7-----7--7-7^9--t
a--x--x----------------------a
g--7--7--7----7--------------g

Chorus. 1
g---x-----x-----x-----x--        
e---x-----x-----x-----x--        
n---x-----x-----x-----x--        
t---9-----9-----7-----7--        
a---9-----9-----7-----7--        
g---7-----7-----5-----5--        

---x---3-----3-----3---g--g
---x---3-----3-----3---e--e
---x---4-----4-----4---n--n
---5---5-----5-----5---t--t
---5---5-----5-----5---a--a
---3---3-----3-----3---g--g

Chorus. 2
---x-----x-----x-----x-----x---3-----3-----3---g
---x-----x-----x-----x-----x---3^5--5-----3---e
---x-----x-----x-----x-----x---4-----4-----4---n
---9-----9-----7-----7-----5---x-----x-----5---t
---9-----9-----7-----7-----5---5-----5-----5---a
---7-----7-----5-----5-----3---3-----3-----3---g

---x-----x-----x-----x-----x-----x-----x-----x
---x-----x-----x-----x-----x-----x-----x-----x
---x-----x-----x-----x-----x-----x-----x-----x
---9-----9-----10---10----12----12----12----12
---9-----9-----10---10----12----12----12----12
---7-----7------8----8----10----10----10----10

-----------------------------------------------
---7--7--7--7--8--8--8--8--9--9--9--9-10-10-10-
---x--x--x--x---x--x--x--x--x--x--x--x--x---x--x-
---4--4--4--4--5--5--5--5--6--6--6--6--7--7--7-
-----------------------------------------------
-----------------------------------------------

-----------------------------------
--11-11-11-11-12-12-12-12-13-13----
---x--x--x--x---x--x--x--x---x--x----
---8--8--8--8--9--9--9--9--10-10----
-----------------------------------
-----------------------------------

---------------------
-14-14-15-15-15------
--x--x--x--x--x------
-11-11-12-12-12------
---------------------
---------------------

------------------------7--9--7--9---
-------------------------------------
-------------------------------------
------3---4--4--4^7------------------
------x---x--x--x^x------------------
--12^4---5--5--5^8------------------

Fill in 1.
---10^12--10^12--10--------------
----------------------12--10-----
-----------------------------12--
---------------------------------
---------------------------------
---------------------------------

Fill in 2.
---------------------------
---------------------------
---7^9--7^9--7-------------
-----------------9--8--7---
---------------------------
---------------------------

In the end of the intro-part after fill in 2. he plays.
---------------------------------
---------------------------------
---------------------------------
---5---6---6---7---7---9---9-----
---x---x---x---x---x---x---x-----
---6---7---7---7---7---7---7-----

In the second chorus he plays
---x---0-----x---2-----x---3-----3--
---x---0-----x---2-----x---3-----3--
---x---x-----x---3-----x---4-----4--
---2---2-----4---4-----5---5-----5--
---2---2-----4---4-----5---5-----5--
---0---0-----2---2-----3---3-----3--
            
Submit corrections

comments powered by Disqus
↑ Back to top | Christensen Tim Tabs for Time Is The Space Betweeen Us. Lyrics for acoustic guitar and electric guitar. Tablatures and chords are parodies/interpretations of the original songs. You may use it for private study, scholarship, research or language learning purposes only