» » »

Christensen Tim, No Easy Key Tabs (ver.1)

Artists:  A B C D E F G H I J K L M N O P Q R S T U V W X Y Z # 

No Easy Key Tabs (ver.1)

Christensen Tim Tabs
 Rating:
4/5 (4 votes)
No Easy Key lessons Tabs too difficult? Try these video lessons and learn fast
                PLAYING INFORMATION
- Capo on the 3. fret (2. fret on album)
- Drop Low E to D
I've divided the song into 10 figures to play on the guitar.

It makes the song easier to play, when separated into smaller parts.

Hope you like the tab, because if you understand it, you can play it
exactly like Tim C does.

	FIG 1
e|----------------|----------------|
B|------3---------|------3---------|
G|----0-------0---|----0-------0---|
D|--4-------4---4-|--4-------4---4-|
A|--------2-------|--------2-------|
D|2---------------|2---------------|

	FIG 2
e|----------------|----------------|
B|------3---------|------3---------|
G|----0-------0---|----0-------0---|
D|--4-------4---4-|--4-------4---4-|
A|--------2-------|--------2-------|
D|0---------------|0---------------|

	FIG 3
e|----------------|----------------|
B|------6---------|------6---------|
G|----0-------0---|----0-------0---|
D|--7-------7---7-|--7-------7---7-|
A|--------5-------|--------5-------|
D|5---------------|5---------------|

	FIG 4
e|----------------|----------------|
B|------3---------|------2---------|
G|----0-------0---|----0-------0---|
D|--3-------3---3-|--3-------3---3-|
A|--------1-------|--------1-------|
D|1---------------|1---------------|

	FIG 5
e|----------------|----------------|
B|------1---------|------2---------|
G|----0-------0---|----0-------0---|
D|--3-------3---3-|--3-------3---3-|
A|--------1-------|--------1-------|
D|1---------------|1---------------|

	FIG 6
e|----------------|----------------|
B|------3-------2-|------2-------0-|
G|----0-------0---|----0-------0---|
D|--4-------4-----|--4-------4-----|
A|----------------|----------------|
D|2-------2-------|2-------2-------|

	FIG 7
e|----------------|----------------|
B|------3-------3-|------1-------0-|
G|----0-------0---|----0-------0---|
D|--3-------3-----|--3-------3-----|
A|----------------|----------------|
D|3-------3-------|3-------3-------|

	FIG 8
e|----------------|----------------|
B|------3-------3-|------4---------|
G|----0-------0---|----0-------0-3-|
D|--3-------3-----|--3-------3-----|
A|----------------|----------------|
D|1-------1-------|1-------1-------|

	FIG 9
e|----------------|----------------|
B|------3-------3-|------4-------5-|
G|----0-------0---|----0-------0---|
D|--3-------3-----|--3-------3-----|
A|----------------|----------------|
D|1-------1-------|1-------1-------|

	FIG 10
e|----------------|-0-|
B|------3-------3-|-0-|
G|----0-------0---|-4-|
D|--4-------4-----|-5-|
A|--------2-------|-2-|
D|2---------------|-2-|


Intro:	Fig 1 - Fig 2 - Fig 1 - Fig 2


Fig 1
You believe in everything they say
Fig 1
You believe that if you come their way
           Fig 2
It's gonna turn you on
             Fig 2
You couldn't be more wrong


FIG 1
You believe in everything they do
FIG 1
You believe that they are telling the truth
              FIG 2
And they have got it made
              FIG 2
That's such a big mistake


FIG 1                     FIG 1
Everything's alright with you
                          FIG 3
But there's one thing you can't do
      FIG 4
And I believe that is what I want
FIG 1                     FIG 1
Everything's right on the spot
                          FIG 3
But there's one thing you ain't got
      FIG 4                      FIG 5 - FIG 1 - FIG 1 - [Break]
And I believe that is what I need........from you


Everybody wants to sing this song
Everybody wants to hum along
But it's no easy key
It's no easy key


Everybody wanna join the game
Everybody wanna piece of the fame
And take the easy way in
When there's no easy way out


Everything's alright with you
But there's one thing you can't do
And I believe that is what I want
Everything's right on the spot
But there's one thing you ain't got
      FIG 4                      FIG 5 - FIG 4 - FIG 5 - FIG 1 - FIG 1
And I believe that is what I need....Oooh, what I need...from you


Solo:
||: FIG 6 - FIG  6 - FIG 7 - FIG 7 :|| (Repeat)


Outro:
FIG 8 - FIG 9 - FIG 1 - FIG 1 - FIG 1 - Fig 10

This is my first tab. Hope you like it. If you see any problems or if
you have any corrections, feel free to contact me at the email below.
            
Submit corrections

comments powered by Disqus
↑ Back to top | Christensen Tim Tabs for No Easy Key. Lyrics for acoustic guitar and electric guitar. Tablatures and chords are parodies/interpretations of the original songs. You may use it for private study, scholarship, research or language learning purposes only