» » »

Love Is A Matter Of Tabs (ver.1)

Artists:  A B C D E F G H I J K L M N O P Q R S T U V W X Y Z # 

Love Is A Matter Of Tabs (ver.1)

Christensen Tim
Rating:
0/5 (0 votes)

Hard to play? Try these video lessons and learn fast.
                Tim Christensen / Love Is A Matter Of...
      


Capo in 2. fret

Intro.
---3-----3-----3-----3-----3--	--g--
---0-----0-----1-----0-----0--	--e--
---0-----0-----0-----0-----0--	--n--
---0-----0-----0-----0-----0--	--t--
---2-----2-----2-----2-----2--	--a--
---3-----3-----3-----3-----3--	--g--

Verse:
---3-----2p3p2-----0-----0-----0-----0-----2-----2-----3-----2p3p2-----0-----0-----0-----2-----3-----3-----3--	
---0-----3-----------1-----1-----1-----1-----0-----0-----0-----3-----------1-----1-----1-----3-----0-----1-----0--	
---0-----2-----------0-----0-----0-----0-----0-----0-----0-----2-----------0-----0-----0-----2-----0-----0-----0--	
---0-----0-----------2-----2-----2-----2-----0-----0-----0-----0-----------2-----2-----2-----0-----0-----0-----0--	
---2------------------0-----0-----3-----3-----2-----2-----2---------------------0-----0-----3-----------2-----2-----2--	
---3--------------------------------------------3-----3-----3--------------------------------------------3-----3-----3--	
Love is a matter of difference
Between you
And me
Love is a matter of distance
But you are too far away

---3-----2p3p2-----0-----0-----0-----0-----2-----2-----3-----2p3p2-----0-----0-----0-----2-----3-----3-----3--	
---0-----3-----------1-----1-----1-----1-----0-----0-----0-----3-----------1-----1-----1-----3-----0-----1-----0--	
---0-----2-----------2-----2-----0-----0-----0-----0-----0-----2-----------2-----2-----0-----2-----0-----0-----0--	
---0-----0-----------2-----2-----2-----2-----0-----0-----0-----0-----------2-----2-----2-----0-----0-----0-----0--	
---2------------------0-----0-----3-----3-----2-----2-----2------------------0-----0-----3------------2-----2-----2--	
---3--------------------------------------------3-----3-----3--------------------------------------------3-----3-----3--	
Love is a matter of growing
And knowing
True feelings
Love is a matter of showing
But you are so far away

Chorus:
---0-----0-----0-----0-----2-----0-----0-----0-----2-----3-----3-----3
---0-----0-----0-----0-----3-----0-----1-----1-----3-----0-----1-----0
---0-----0-----0-----0-----4-----1-----0-----0-----2-----0-----0-----0
---2-----2-----2-----2-----4-----2-----2-----2-----0-----0-----0-----0
---3-----3-----3-----3-----2-----2-----0-----3-----------2-----2-----2
-----------------------------------’0-------------------------3-----3-----3
When my heart is hoping
My mind is opening to find
That I can't let you stay
Though love is a matter of difference
You are too far away





---3-----2p3p2-----0-----0-----0-----0-----2-----2-----3-----2p3p2-----0-----0-----0-----2-----3-----3-----3--	
---0-----3-----------1-----1-----1-----1-----0-----0-----0-----3-----------1-----1-----1-----3-----0-----1-----0--	
---0-----2-----------2-----2-----0-----0-----0-----0-----0-----2-----------2-----2-----0-----2-----0-----0-----0--	
---0-----0-----------2-----2-----2-----2-----0-----0-----0-----0-----------2-----2-----2-----4-----0-----0-----0--	
---2------------------0-----0-----3-----3-----2-----2-----2------------------0-----0-----3-----5-----2-----2-----2--	
---3--------------------------------------------3-----3-----3-------------------------------------------3-----3-----3--	
Love is a matter of input
Outlook
Deep inside
Love is to know you're on my side
But you are so far away

---0-----0-----0-----0-----2-----0-----0-----0-----2-----3-----3-----3
---0-----0-----0-----0-----3-----0-----1-----1-----3-----0-----1-----0
---0-----0-----0-----0-----4-----1-----0-----0-----2-----0-----0-----0
---2-----2-----2-----2-----4-----2-----2-----2-----0-----0-----0-----0
---3-----3-----3-----3-----2-----2-----0-----3-----------2-----2-----2
-----------------------------------’0-------------------------3-----3-----3
When my heart is hoping
My mind is opening to find
That I can't let you stay
Though love is a matter of difference
You are too far away


Solo.
-----------3-----------------5----------------5----5----5--------------------------------------------------------
---5---5-----5---5^7---7-----7---7^8---8----8----7---7----8---5---8---5---8---5---8---5---7---7--------

Chords in the solo-part:
---0-----0-----2-----2-----3-----3-----2-----2-----0-----0-----0-----2-----2--
---1-----1-----3-----3-----5-----5-----3-----3-----1-----1-----1-----0-----0--
---0-----0-----2-----2-----4-----4-----4-----4-----0-----0-----0-----0-----0--
---2-----2-----4-----4-----5-----5-----4-----4-----2-----2-----0-----0-----0--
---0-----0-----2-----2-----3-----3-----2-----2-----0-----0------------2-----2--

---0-----0-----0-----0-----2-----0-----0-----0-----2-----3-----0-----0-----0-----2-----0-----3--
---0-----0-----0-----0-----3-----0-----1-----1-----3-----0-----0-----1-----1-----3-----1-----3--
---0-----0-----0-----0-----4-----1-----0-----0-----2-----0-----1-----0-----0-----2-----0-----0--
---2-----2-----2-----2-----4-----2-----2-----2-----0-----0-----2-----2-----2-----0-----2-----0--
---3-----3-----3-----3-----2-----2-----0-----3-----------2------2-----0-----3------------3-----2--
------------------------------------0------------------------3-----0--------------------------------3--
When my heart is hoping
My mind is opening to find
That I can't let you stay
Though love is a matter of difference
You are too far away

If love is a matter of distance
You are too far away


Chords:

Intro:
G--Gsus4--G--Gsus4

Verse:
G--D—Am7--C--Gmaj7--G--D--Am7--C--D--G--Gsus4--G

Chorus:
Cmaj7--Cmaj7--Hm--E--Am7--C--D--G--Gsus4--G

Solo. 
Am7--Hm7--Cmaj7--Hm--Am7--Am/D--Gmaj7
            
Hard to play? Try these video lessons and learn fast. | Correct




comments powered by Disqus
↑ Back to top | Tablatures and chords are parodies/interpretations of the original songs. You may use it for private study, scholarship, research or language learning purposes only