» » »

Christensen Tim, Lost And Found Tabs (ver.1)

Artists:  A B C D E F G H I J K L M N O P Q R S T U V W X Y Z # 

Lost And Found Tabs (ver.1)

Christensen Tim Tabs
 Rating:
4/5 (4 votes)
Lost And Found lessons Tabs too difficult? Try these video lessons and learn fast
1
                Tuning: Drop D-tuning i.e. tune your low E-string down to D

This is a nice song, 
capo on 5th fret


Rhytm Figure 1:
  D(G)*       Em9(Am9)  Gmaj7/h(Cmaj7/e)        
e|--2---2-2-2---2------|--2---2-2-2---2--------|
B|--3---3-3-3---3------|--3---3-3-3---3--------|
G|--2---2-2-2---0-----0|--0---0-0-0---0--------|
D|------------2---2-4--|--0---0-0-0---0-----0-2|
A|---------------------|2-----------2---0-2----|
D|0--------------------|-----------------------|
 * actual chords in parenthesis

Rhytm Figure 2:
  D(G)        Em9(Am9)  Em9(Am9)               F#sus4(Hsus4)F#(H)  
e|--2---2-2-2---2------|--2---2-2-2---2---2-2-2|--7---7-7-7---6---6-6|
B|--3---3-3-3---3------|--3---3-3-3---3---3-3-3|--7---7-7-7---7---7-7|
G|--2---2-2-2---0-----0|--0---0-0-0---0---0-0-0|--6---6-6-6---6---6-6|
D|------------2---2-4--|--0---0-0-0---0---0-0-0|--4---4-4-4---4---4-4|
A|---------------------|-----------------------|--4---4-4-4---4---4-4|
D|0--------------------|2-----------2----------|4-----------4--------|

Rhytm Figure 3:
  D(G)        Em9(Am9)  Gmaj7 Asus4 Dsus4       
e|--2---2-2-2---2------|--2-2---2-2---2|
B|--3---3-3-3---3------|--3-3---3-3---3|
G|--2---2-2-2---0-----0|--0-0---0-0---0|
D|------------2---2-4--|--0-0---0-0-0--|
A|---------------------|2-----4--------|
D|0--------------------|---------------|

Rhytm Figure 4:
  D(G)        Em9(Am9)  D(G)        F#(H) 
e|--2---2-2-2---2------|--2---2-2-2-2-2-2---2-2|
B|--3---3-3-3---3------|--3---3-3-3-2-2-2---2-2|
G|--2---2-2-2---0-----0|--2---2-2-2-3-3-3---3-3|
D|------------2---2-4--|------------4-4-4---4-4|
A|---------------------|-----------------------|
D|0--------------------|0----------------------|


Intro: 4 x Rhytm Figure 1
Verse: 2 x Rhytm Figure 1
           Rhytm Figure 2
           Rhytm Figure 3
           Rhytm Figure 1, Rhytm Figure 4 in verse 2


Hm(Em)              Hm(Em)
You begin with everything to win
  A7sus4(D7sus4) A7(D)    A7sus4(D7sus4)    A7(D7)
in whatever you try.
Hm                     Hm
You can't choose everything you lose
      A7sus4      A7      Asus4       A
and whatever you try
         Gmaj7(Cmaj7) G6(C6)     Em9(Hm9)    Em7(Hm7)
you cry now that it's time to surrender
    A7sus4    A7       Rhytm Fig. 1
whatever you try to remember.


Chords:
  Hm     A7sus4     A7      Gmaj7      G6      Em9      Em7
e|2--------2--------0---------2--------0--------2--------0|
B|3--------3--------2---------0--------0--------3--------3|
G|4--------0--------0---------0--------0--------0--------0|
D|4--------2--------2---------0--------0--------0--------0|
A|2--------0--------0---------5--------5--------x--------x|
D|----------------------------5--------5--------2--------2|


| /  slide up
| \  slide down
| h  hammer-on
| p  pull-off
| ~  vibrato
| +  harmonic
| x  Mute note
            
Submit corrections

comments powered by Disqus
↑ Back to top | Christensen Tim Tabs for Lost And Found. Lyrics for acoustic guitar and electric guitar. 1 Tablatures and chords are parodies/interpretations of the original songs. You may use it for private study, scholarship, research or language learning purposes only