» » »

Chris Rea, Tell Me There's A Heaven Tabs (ver.1)

Artists:  A B C D E F G H I J K L M N O P Q R S T U V W X Y Z # 

Tell Me There's A Heaven Tabs (ver.1)

Chris Rea Tabs
 Rating:
4/5 (4 votes)
Tell Me There's A Heaven lessons Tabs too difficult? Try these video lessons and learn fast
1
                

CHRIS REA’S  - TELL ME THERES A HEAVEN

Hi and thanks to anyone taking the time to have a look at my tab for this
depressingly beautiful piece of music. I have taken many tabs from this web
site so kinda figured I owe something back so here is my first attempt at
a music tab so any positive feed back or criticism greatly appreciated
although I am no pro so go a little easy on any criticism please. Please
bare in mind this is my own interpretation of this song, which as you will
probably know was written for the piano but I think the melody is fairly
close to the original. I have added in a few additional notes in between
the main melody purely to make the piece sound a little more fluid. I have
only transcribed the chorus so far but if you like what I have done here
and would like the whole song transcribed then I am happy to have a go.

Hope you enjoy

Chorus


Q=100
 4/4
  Gtr I

 TELL ME THERES A HEAVEN           TELL ME THAT’S ITS TRUE
  C              F   C                           F

|-0-----0-----0--1---0-------0-----0---3-1p0-----------------------------|
|-1-1---1-1h3-1--1-1-1-1-----1-1---1-1-1-0---0-----1-------1-----1-----0-|
|-----0---0-0------2---0-0-------0-----------0-0-2-2-2-------2-----2---2-|
|----------------------------------------------2-3-----3-------3-----3---|
|-3-----3-3------3---3-----3-------3---3-3-------3-3-----3-------3-----3-|
|------------------------------------------------------------------------|

        TELL ME THERES A REASON WHY I’M FEELING LIKE I DO
        G             C       F             C
|---------------------0-----------------------------0----------|
|-----1-3-----3-0h1-0-1-3-1p0---------0h1p0---1-------1--------|
|-2---2-0-0---0-0---0---0-0---2-----2-0-----0---0-------0------|
|---3-------0-----------------3-3---3-------2-----2-------2----|
|-----3---------------3-3-3---3---3-3-------3-------3----------|
|-------3-----3------------------------------------------------|


Tablature Legend
----------------
 h   - hammer-on
 p   - pull-off

Chords used are simply C  G  AND F using a few hammer ons and pull offs on the 1st and 
strings using 1st and little finger whilst in the C shape

C 0   G 3   F  1
  1     0       1
  0     0       2
  2     0       3
  3     2       3
  X     3       X
            
Submit corrections

comments powered by Disqus
↑ Back to top | Chris Rea Tabs for Tell Me There's A Heaven. Lyrics for acoustic guitar and electric guitar. 1 Tablatures and chords are parodies/interpretations of the original songs. You may use it for private study, scholarship, research or language learning purposes only