» » »

Josephine Bass tabs (ver.1)

Artists:  A B C D E F G H I J K L M N O P Q R S T U V W X Y Z # 

Josephine Bass tabs (ver.1)

Chris Rea
Rating:
0/5 (0 votes)

Hard to play? Try these video lessons and learn fast.
                Chris Rea - Josephine

Couplet 4x
G |-------------------|---------------|-------10-12-10---|----------------|
D |-12----11-12----11-|-12---11-12----|----12---------12-|-11-11----11-11-|
A |----12-------12----|----12------12-|-10---------------|-------10-------|
E |-------------------|---------------|------------------|----------------|

Refrein
G |----------------|---------------|-------10-12-10----|-------10-12-10----|
D |-9-------9------|-9------9------|----12----------12-|----12----------12-|
A |---8-10----8-10-|---8-10---8-10-|-10----------------|-10----------------|
E |----------------|---------------|-------------------|-------------------|

G |------12-12-------|------12---------|-------10-12-10----|---------------|
D |------------------|-----------------|----12----------12-|-11------11----|
A |-10---------10-10-|-10-----10-10-10-|-10----------------|------10----10-|
E |------------------|-----------------|-------------------|----8----------|

G |---------------|---------------|-------10-12-10----|-------10-12-10----|
D |-9------9------|-11-9-7-11-9-7-|----12----------12-|----12----------12-|
A |---8-10---8-10-|---------------|-10----------------|-10----------------|
E |---------------|---------------|-------------------|-------------------|

G |---------------|---------------|-------10-12-10----|-------10-12-10----|
D |-9------9------|-11-9-7-11-9-7-|----12----------12-|----12----------12-|
A |---8-10---8-10-|---------------|-10----------------|-10----------------|
E |---------------|---------------|-------------------|-------------------|

Couplet 2x

G |---------------|---------------|-------10-12-10----|-------10-12-10----|
D |-9------9------|-11-9-7-11-9-7-|----12----------12-|----12----------12-|
A |---8-10---8-10-|---------------|-10----------------|-10----------------|
E |---------------|---------------|-------------------|-------------------|

G |---------------|---------------|----------1210-|-------17------| 2x
D |-12~-----------|----------12---|---------------|-11------------|
A |---------------|------------12-|-10~-----------|---------------|
E |---------------|---------------|---------------|---------------|

Couplet 2x
Refrein 

Dan tot fade out

G |---------------|---------------|-------10-12-10----|-------10-12-10----| 
D |-9------9------|-11-9-7-11-9-7-|----12----------12-|----12----------12-|
A |---8-10---8-10-|---------------|-10----------------|-10----------------|
E |---------------|---------------|-------------------|-------------------|

Enjoy it
            
Hard to play? Try these video lessons and learn fast. | Correct




comments powered by Disqus
↑ Back to top | Tablatures and chords are parodies/interpretations of the original songs. You may use it for private study, scholarship, research or language learning purposes only