» » »

I Can Hear Your Heartbeat Bass tabs (ver.1)

Artists:  A B C D E F G H I J K L M N O P Q R S T U V W X Y Z # 

I Can Hear Your Heartbeat Bass tabs (ver.1)

Chris Rea
Rating:
0/5 (0 votes)

Hard to play? Try these video lessons and learn fast.
                Chris Rea
Bass Tab
Bassist: Eoghan O'Neill

128BPM, 4/4

Note: This is the version from "New Light Through Old Windows"

Intro

|------------|------------|------------|------------|
|-2----------|------------|-2----------|------------|
|-----5-5----|-3---5-5----|-----5-5----|-3---5-5----|
|------------|------------|------------|------------|

|-------------|------------|-------------|------------|
|-------------|------------|-------------|------------|
|------2-5----|-3---5-5----|------2-5----|-3---5-5----|
|--0-3--------|------------|--0-3--------|------------|

Verse

||--------------|------------|-------------|-------------||
||o-------------|------------|-------------|------------o||
||o------2-5----|-3---5-5----|------2-5----|-3---5-5----o||
||---0-3--------|------------|--0-3--------|-------------||

|----------|----------|----------|-----------|
|----------|----------|----------|-----------|
|----------|-5--------|----------|-3-------3-|
|-3--------|----------|-0--------|-----------|

|----------|----------|----------|-----------|
|----------|----------|----------|-----------|
|-5--------|-5--------|----------|-3---------|
|----------|----------|-0--------|--------5--|

|----------|----------------|
|----------|----------------|
|-5--------|-5-5-5-5-5-5-5--|
|----------|----------------|

Chorus

|-------------|--------------|-------------|--------------|
|-------------|--------------|-------------|--------------|
|-------5---5-|-------3--2---|-------5---5-|-------3--2---|
|-3---3-------|-0---0------5-|-3---3-------|-0---0------5-|

|-------------|-------------|-----------|------|
|-------------|-------------|-----------|------|
|-------5---5-|-------3-----|-5---------|-5----|
|-3---3-------|-0---0----5--|--------5--|------|

|------------|------------|------------|------------|
|-2----------|------------|-2----------|------------|
|-----5-5----|-3---5-5----|-----5-5----|-3---5-5----|
|------------|------------|------------|------------|

Verse

||--------------|------------|-------------|-------------||
||o-------------|------------|-------------|------------o||
||o------2-5----|-3---5-5----|------2-5----|-3---5-5----o||
||---0-3--------|------------|--0-3--------|-------------||

|----------|----------|----------|-----------|
|----------|----------|----------|-----------|
|----------|-5--------|----------|-3-------3-|
|-3--------|----------|-0--------|-----------|

|----------|----------|----------|-----------|
|----------|----------|----------|-----------|
|-5--------|-5--------|----------|-3---------|
|----------|----------|-0--------|--------5--|

|----------|---------------|
|----------|---------------|
|-5--------|-5--5-5-5-5-5--|
|----------|---------------|

Chorus

|------------|--------------|------------|--------------|
|------------|--------------|------------|--------------|
|-------5----|-------3--2---|-------5----|-------3--2---|
|-3---3------|-0---0------5-|-3---3------|-0---0------5-|

|------------|------------|-----------|------|
|------------|------------|-----------|------|
|-------5----|------------|-5---------|-5----|
|-3---3------|-0---0-0----|--------5--|------|

Break

|------------|------------|------------|------------|
|-2----------|------------|-2----------|------------|
|-----5-5----|-3---5-5----|-----5-5----|-3---5-5----|
|------------|------------|------------|------------|

|-------------|------------|-------------|------------|
|-------------|------------|-------------|------------|
|------2-5----|-3---5-5----|------2-5----|-3---5-5----|
|--0-3--------|------------|--0-3--------|------------|

Verse

|----------|----------|----------|----------|
|----------|----------|----------|----------|
|----------|-5--------|----------|-3--------|
|-3--------|----------|-0--------|----------|

|----------|----------|----------|-----------|
|----------|----------|----------|-----------|
|-5--------|-5--------|----------|-3---------|
|----------|----------|-0--------|--------5--|

|----------|--------|
|----------|--------|
|-5--------|--------|
|----------|--------|

Chorus

|------------|--------------|------------|--------------|
|------------|--------------|------------|--------------|
|-------5----|-------3--2---|-------5----|-------3--2---|
|-3---3------|-0---0------5-|-3---3------|-0---0------5-|

|------------|-------------|-----------|-------------|
|------------|-------------|-----------|-------------|
|-------5----|-------3-----|-5---------|-5-----5-----|
|-3---3------|-0---0----5--|--------5--|-----5----5--|

||--------------|--------------|-------------|--------------|
||o-------------|--------------|-------------|--------------|
||o-------5---5-|-------3--2---|-------5---5-|-------3--2---|
||--3---3-------|-0---0------5-|-3---3-------|-0---0------5-|

|-------------|-------------|-----------|--------------||
|-------------|-------------|-----------|-------------o||
|-------5---5-|-------3-----|-5---------|-5-----5-----o||
|-3---3-------|-0---0----5--|--------5--|-----5----5---|| &fade
            
Hard to play? Try these video lessons and learn fast. | Correct




comments powered by Disqus
↑ Back to top | Tablatures and chords are parodies/interpretations of the original songs. You may use it for private study, scholarship, research or language learning purposes only