>
 >
Daytona

Daytona Bass Tabs

Chris Rea - Daytona chords, tabs, tablatures, lyrics

Guitar lessons | Add/correct | Request | Top 50 tabs Artists:  A B C D E F G H I J K L M N O P Q R S T U V W X Y Z 0-9

Daytona Bass Tabs – Chris Rea

CD, Sheet music, Poster

Do you like Daytona? Share with your friends now
Bass TabsChordsUkulele
Bass Tabs Daytona  Chris REA

Intro X3
G--------------------------------------------|
D--------------------------------------------|
A--------3----3-3----------------------------|
E---3-5--------------------------------------|

Verse X2
G-------------------------------------------------|
D-------------------------------------------------|
A--------3---3---5--------3---3--1--------3------|
E---3-5-------------6--3-------------1--0---------|
Diamond dream    When the sun don't shine    I close my eyes to see
Twelve wild horses     In silver chain      Calling out to me


Chorus X2
G------------------------------------------------------------------------|
D-------3---3--0--0-------------------------3------3---5-----------------|
A--------------------3-----------3------------------------5---3-------3-|
E-3--5----------------------3--5-------3--5-----------------------3-5----|
         Oh Daytona                    Shine your light on me
         Oh Daytona                    Shine your light on me


Verse
G------------------------------------------------|
D------------------------------------------------|
A--------3---3--5-------3------3--1--------3-----|
E---3-5-----------6--3--------------1--0---------|
Now she ain't easy     So you take good care   Or she will scream down on your lust


G-----------------------------------------------|
D-----------------------------------------------|
A--------3---6---8---6---3------3--1--------3---|
E---3-5-------------------------------1--0------|
She can please you     Like no other    Or she can leave you eating dust


Chorus X1
G---------------------------------------------------------------------|
D-------3---3--0--0-----------------------3------3--5-----------------|
A---------------------3---------3---------------------5---3------3---|
E-3--5---------------------3--5-------3--5---------------------3-5----|
      Oh Daytona                      Shine your light on me



Solo Guitar

Bass  X7
G-----------------------------------------|
D-----------------------------------------|
A--------3----3---------------------------|
E---3-5---------3-------------------------|


Verse
G-----------------------------------------------|
D-----------------------------------------------|
A-------3--3--6---8---6---3------3--1--------3--|
E---3-5--------------------------------1--0-----|
Burning passion        Heat my day       Let me sit inside your wonder
Cloudless daydream  Oh dance of dances   To have tamed the sound of thunder


Chorus X2
G---------------------------------------------------------------------|
D------3---3--0--0------------------------3------3---5----------------|
A--------------------3----------3----------------------5---3-------3--|
E-3--5--------------------3--5-------3--5----------------------3-5----|
         Oh Daytona                         Shine your light on me
         Oh Daytona                         Shine your light on me


Bass  rythmic X3
G------------------------------|
D------------------------------|
A---3----6--8-8-86---3--------|
E------------------------------|

Chorus  XXX
G-----------------------------------------|
D-----------------------------------------|
A--------3----3---------------------------|
E---3-5---------3-------------------------|

Oh Daytona hey hey...

Racing car engine sound

End fading
G---------------------------------------------|
D---------------------------------------------|
A--------3----3-------3-------3---------3-----|
E---3-5---------3--------3--------3---------3-|





Comments


Popular Chris Rea tabs & chords
90 Blues Chords
Daytona Chords
Driving Home For Christmas Chords
Fool 1 Chords
Gods Great Banana Skin Chords
Josephine 1 Chords
Midnight Blue Chords
Tell Me There's A Heaven Tabs
Daytona Ukulele
You Must Be Evil Ukulele


Song lyrics



↑ Back to top | Tablatures and chords are parodies/interpretations of the original songs. You may use it for private study, scholarship, research or language learning purposes only
© 2014 AZChords.com Contact us | Privacy policy | DMCA | Add/correct tabs | Request tabs | Top 50 tabs