» » »

Auberge Tabs (ver.1)

Artists:  A B C D E F G H I J K L M N O P Q R S T U V W X Y Z # 

Auberge Tabs (ver.1)

Chris Rea
Rating:
0/5 (0 votes)

Hard to play? Try these video lessons and learn fast.
                 Okay im submitting this tab because theres only one on here and its wrong. Im not
a fan of Chris Rea but i heard this song and it had a cool riff and all. I just tabbed it
ear, its my first tab but im sure its 99.99999999 percent correct (you get the idea!) 
to song for timing and enjoy!

Intro:
Lots of slides in Amin/maj pentatonic scale with bottleneck, and some pull offs.

Key:
U - Upstroke
D - Downstroke

Main Riff:
 ------------------------------------------------|
 ---------------5--------------------------------|
 -----5-7-5-7-5------5-7-5-7-5-----5-------------|
 --7---------------7------------7----------------|
 ------------------------------------------------|
 ------------------------------------------------|

 -----------------------------------------------|
 ----------------5----------------5-------------|
 -----5-7-5-7-5---------5-7-5-7-5---7-5---------|
 ---7----------------7------------------7-------|
 -----------------------------------------------|
 -----------------------------------------------|

During Verse:
   U  U  D  D
 -----------------------------------------------|
 -----------------------------------------------|
 -----------------------------------------------|
 ---7--7--7--7----------------------------------|
 ---7--7--7--7----------------------------------|
 ---5--5--5--5----------------------------------|

Pre-Chorus:
"This is the naked truth...."

 ------------------------------------------------|
 ------------------------------------------------|
 ------------------------------------------------|
 ---12-----10------------------------------------|
 ---12-----10------------------------------------|
 ---10-----8-------------------------------------|
            
Hard to play? Try these video lessons and learn fast. | Correct




comments powered by Disqus
↑ Back to top | Tablatures and chords are parodies/interpretations of the original songs. You may use it for private study, scholarship, research or language learning purposes only