» » »

Rock Steady Chords (ver.1)

Artists:  A B C D E F G H I J K L M N O P Q R S T U V W X Y Z # 

Rock Steady Chords (ver.1)

Chris Murray
Rating:
5/5 (1 vote)

Hard to play? Try these video lessons and learn fast.
                -------------------------------------------------------------------------------
-------------------------------------------------------------------------------
Best song ever by the best guy ever. Enjoy. My first tab, but I think it's all right.
Tell me if you know different.

Tuning: Standard

Intro + Verse chords - the part where Chris is singing "Rock Steady, steady with me

    A x2   D x3  E x1  A x2
e|--5------5-----7-----5----------------------------------------------------|
B|--5------6-----7-----5----------------------------------------------------|
G|--6------6-----8-----6----------------------------------------------------|
D|--7------6-----9-----7----------------------------------------------------|
A|--7------5-----9-----7----------------------------------------------------|
E|--5------x-----7-----5----------------------------------------------------|

Intro (Riff) - probably on a bass but works on guitar too. Plays through whole song except Bridge, I think.

e|--------------------------------------------------------------------------|
B|--------------------------------------------------------------------------|
G|--------------------------------------------------------------------------|
D|--------------------------------------------------------------------------|
A|--------7----9--12---7-----7----------------------------------------------|
E|---5--9---10-----10---5--5------------------------------------------------|

Bridge chords (work timing / rhythm out from CD - those are the right chords,
just not written in quite the right places in relation to the words) 
E x2   D  x2                  A x4
    I don't wanna change the world, tonight
E x2   D  x2                  A x4
   Just tell me if it, feels right, Darlin'
A x2   D  x2     E x2            D x2
   This moment, can never repeat, will you
A x2   D x3      E x1        A x2   
   Rock steady, steady with me

| /  slide up
| \  slide down
| B  hammer-on
| p  pull-off
| ~  vibrato
| +  harmonic
| x  Mute note

Cheers, enjoy the tab.
===============================================================================
            
Hard to play? Try these video lessons and learn fast. | Correct




comments powered by Disqus
↑ Back to top | Tablatures and chords are parodies/interpretations of the original songs. You may use it for private study, scholarship, research or language learning purposes only