>
 >
Cadillac Cowboy

Cadillac Cowboy Guitar Tabs

Chris Ledoux - Cadillac Cowboy chords, tabs, tablatures, lyrics

Guitar lessons | Add/correct | Request | Top 50 tabs Artists:  A B C D E F G H I J K L M N O P Q R S T U V W X Y Z 0-9

Cadillac Cowboy Guitar Tabs – Chris Ledoux

CD, Sheet music, Poster

Do you like Cadillac Cowboy? Share with your friends now
ChordsTabsUkulele
                               Cadillac Cowboy



           Simple Slide
     ^     ^                 PM      PM
     Q     Q            Q    Q       Q    H        Q
E||--1s----2------------2----2----|--2----2-------------|
B||--2s----3------------3----3----|--3----3-------------|
G||--1s----2------------2----2----|--2----2-------------|
D||-------------------------------|---------------------|
A||-------------------------------|---------------------|
E||-------------------------------|---------------------|


                  PM      PM
  Q     Q    Q    Q       Q    H        Q       Q     Q    Q    Q
--1s----2----2----2----|--2----2-------------|--1s----2----2----2----|
--2s----3----3----3----|--3----3-------------|--2s----3----3----3----|
--1s----2----2----2----|--2----2-------------|--1s----2----2----2----|
-----------------------|---------------------|-----------------------|
-----------------------|---------------------|-----------------------|
-----------------------|---------------------|-----------------------|


                                                     Slide up
  Q    H        Q       Q     Q    Q    Q       Q    Q         Q    Q
--2----2-------------|--1s----2----2----2----|--2----2s--------5----5----|
--3----3-------------|--2s----3----3----3----|--3----3s--------6----6----|
--2----2-------------|--1s----2----2----2----|--2----2---------5----5----|
---------------------|-----------------------|---------------------------|
---------------------|-----------------------|---------------------------|
---------------------|-----------------------|---------------------------|


                  PM      PM
  Q     Q    Q    Q       Q    H        Q
--1s----2----2----2----|--2----2-------------|
--2s----3----3----3----|--3----3-------------|
--1s----2----2----2----|--2----2-------------|
-----------------------|---------------------|
-----------------------|---------------------|
-----------------------|---------------------|



  Q                                                  Q    Q    Q
--2s-------------------------------------------------3----3----3----|
--0--------------------------------------------------0----0----0----|
--0--------------------------------------------------0----0----0----|
--------------------------------------------------------------------|
--------------------------------------------------------------------|
--------------------------------------------------------------------|


                                        PM      PM
  Q    H        Q       Q     Q    Q    Q       Q    H        Q
--3----3-------------|--1s----2----2----2----|--2----2-------------|
--0----0-------------|--2s----3----3----3----|--3----3-------------|
--0----0-------------|--1s----2----2----2----|--2----2-------------|
---------------------|-----------------------|---------------------|
---------------------|-----------------------|---------------------|
---------------------|-----------------------|---------------------|


.
                                                                        PM
  Q                                  E  E  Q    Q       Q     Q    Q    Q
-----------------------------------------------------|--1s----2----2----2----|
--2----------------------------------2--2--2---------|--2s----3----3----3----|
--2----------------------------------2--2--2---------|--1s----2----2----2----|
--2----------------------------------2--2--2---------|-----------------------|
-----------------------------------------------------|-----------------------|
-----------------------------------------------------|-----------------------|


  PM
  Q    H        Q       Q     Q    Q    Q       Q    H        Q
--2----2-------------|--2s----3----3----3----|--3----3-------------|
--3----3-------------|--0-----0----0----0----|--0----0-------------|
--2----2-------------|--0-----0----0----0----|--0----0-------------|
---------------------|-----------------------|---------------------|
---------------------|-----------------------|---------------------|
---------------------|-----------------------|---------------------|


                  PM      PM
  Q     Q    Q    Q       Q    H        Q
--1s----2----2----2----|--2----2-------------|
--2s----3----3----3----|--3----3-------------|
--1s----2----2----2----|--2----2-------------|
-----------------------|---------------------|
-----------------------|---------------------|
-----------------------|---------------------|



  Q
--------------------------------------------------------------------------------|
--2--------------------------------------------------------------2--2--2--------|
--2--------------------------------------------------------------2--2--2--------|
--2--------------------------------------------------------------2--2--2--------|
--------------------------------------------------------------------------------|
--------------------------------------------------------------------------------|


  Q    Q    Q    E  E     Q    Q    Q    Q       Q    Q    Q    Q
--2----2----2----3--5--|--3----3----3----3----|--2----2----2----2----|
--3----3----3----3--3--|--3----3----3----3----|--3----3----3----3----|
--2----2----2----2--2--|--0----0----0----0----|--2----2----2----2----|
-----------------------|--0----0----0----0----|----------------------|
-----------------------|--2----2----2----2----|----------------------|
-----------------------|--3----3----3----3----|----------------------|


  Q    Q    Q    Q       Q    Q    Q    E  E     Q    Q    Q    Q
----------------------|--2----2----2----3--5--|--3----3----3----3----|
--2----2----2----2----|--3----3----3----3--3--|--3----3----3----3----|
--2----2----2----2----|--2----2----2----2--2--|--0----0----0----0----|
--2----2----2----2----|-----------------------|--0----0----0----0----|
----------------------|-----------------------|--2----2----2----2----|
----------------------|-----------------------|--3----3----3----3----|


  Q    Q    Q    Q       Q    Q    Q    Q       Q    Q    Q    E  E
--2----2----2----2----|----------------------|--2----2----2----3--5--|
--3----3----3----3----|--2----2----2----2----|--3----3----3----3--3--|
--2----2----2----2----|--2----2----2----2----|--2----2----2----2--2--|
----------------------|--2----2----2----2----|-----------------------|
----------------------|----------------------|-----------------------|
----------------------|----------------------|-----------------------|


                  PM      PM
  Q     Q    Q    Q       Q    H        Q       Q     Q    Q    Q
--1s----2----2----2----|--2----2-------------|--2s----3----3----3----|
--2s----3----3----3----|--3----3-------------|--0-----0----0----0----|
--1s----2----2----2----|--2----2-------------|--0-----0----0----0----|
-----------------------|---------------------|-----------------------|
-----------------------|---------------------|-----------------------|
-----------------------|---------------------|-----------------------|


                                        PM      PM
  Q    H        Q       Q     Q    Q    Q       Q    H        Q
--3----3-------------|--1s----2----2----2----|--2----2-------------|
--0----0-------------|--2s----3----3----3----|--3----3-------------|
--0----0-------------|--1s----2----2----2----|--2----2-------------|
---------------------|-----------------------|---------------------|
---------------------|-----------------------|---------------------|
---------------------|-----------------------|---------------------|


  Q    E  E  Q    Q
-----------------------||
--2----2--2--2---------||
--2----2--2--2---------||
--2----2--2--2---------||
-----------------------||
-----------------------||




Duration Legend
---------------
W - whole
H - half
Q - quarter
E - 8th
S - 16th
T - 32nd
X - 64th
. - note dotted
|-n-|  - n-tuplets


Tablature Legend
----------------
L - tied note
x - dead note
g - grace note
(n) - ghost note
> - accentuded note
NH - natural harmonic
AH - artificial harmonic
TH - tapped harmonic
SH - semi harmonic
PH - pitch harmonic
h - hammer on
p - pull off
b - bend
br - bendRelease
pb - preBend
pbr - preBendRelease
brb - bendReleaseBend
\n/ - tremolo bar dip
\n - tremolo bar dive
-/n - tremolo bar Release up
/n\ - tremolo bar inverted dip
/n - tremolo bar return
-\n - tremolo bar Release down
S - shift slide
s - legato slide
/ -  slide into from below or out of upwards
\ -  slide into from above or out of downwards
~ - vibrato
W - wide vibrato
tr - tril'
TP - tremolo picking
T - tapping
S - slap
P - pop
< - fade in
^ - brush up
v - brush down





Comments


Popular Chris Ledoux tabs & chords
Bluebonnet Blues Chords
Call Of The Wild Chords
Dallas Days And Fort Worth Nights Chords
Goin' and a Blowin' Chords
I'm Country Chords
Just Look At You Girl Chords
Rodeo Rose Chords
Tight Levis And Yellow Ribbons Chords
This Cowboys Hat 1 Tabs
Tougher Than The Rest Tabs


Song lyrics



↑ Back to top | Tablatures and chords are parodies/interpretations of the original songs. You may use it for private study, scholarship, research or language learning purposes only
© 2014 AZChords.com Contact us | Privacy policy | DMCA | Add/correct tabs | Request tabs | Top 50 tabs