» » »

If I Were You (finger Picking) Tabs (ver.1)

Artists:  A B C D E F G H I J K L M N O P Q R S T U V W X Y Z # 

If I Were You (finger Picking) Tabs (ver.1)

Chris Knight
Rating:
0/5 (0 votes)

Hard to play? Try these video lessons and learn fast.
                If I were You


Picking pattern


chords 
G - 320033
C - x32010
D - xx0232

t = thumb   i = index
the middle finger can also be used on the treble E 
instead of the index finger if you prefer using 3
fingers for picking.


This is a very basic tab of the way Chris is playing.
He occasionally varies and in the recording I am working
off of, his voice can drowned out the guitar, so its 
difficult to hear sometimes.
This should give an idea of the style of picking he is using.
I tried to indicate the rythym above the tab.


capo 5

 G
  1    2    3 &   4 &
            ___   ___
  |    |    | |   | |
|-------------------3--|
|-------------3--------|
|------0----------0----|
|----------------------|
|----------------------|
|-3---------3----------|
  t    t    t i   t i

   

Here's the G to C transition

 C                           D
        1    2 &   3 &   4    1    2 &   3 &   4
             ___   ___             ___   ___
        |    | |   | |   |    |    | |   | |   |
|--------------------0------|--------------2------|
|--------------1------------|--------3------------|
|------------0-----------0--|------2-----------2--|
|------------------2--------|-0----------0--------|
|-0--2--3-------------------|---------------------|
|---------------------------|---------------------|
  t  t  t    t i   t i   t

            
Hard to play? Try these video lessons and learn fast. | Correct




comments powered by Disqus
↑ Back to top | Tablatures and chords are parodies/interpretations of the original songs. You may use it for private study, scholarship, research or language learning purposes only