» » »

Framed (electric Guitar Parts) Tabs (ver.1)

Artists:  A B C D E F G H I J K L M N O P Q R S T U V W X Y Z # 

Framed (electric Guitar Parts) Tabs (ver.1)

Chris Knight
Rating:
0/5 (0 votes)

Hard to play? Try these video lessons and learn fast.
                Framed  (Electric Guitar Tab)

Capo 1

Drop D

G / D / Em / C

Intro:
    G	            D	         Em	     C
E|----------3------------------------0-------3--
B|----------3-------------3----------3-------3--
G|--------0---------------0---------0--------0--
D|-----------------------4-------2/4---------2--
A|------------------3/5----------------------3--
D|--3/5-----------------------------------------

Solo 1:
    G	       D	Em	      C
E|---------------------------------------3-----
B|---------3----------3-------3------1---------
G|--------0-0--------0-0-----0-0-----0---------
D|----4h5--------0h4------2/4---4-4\2---2------
A|---------------------------------------------
D|---------------------------------------------

Main Solo:
   G	     D	        Em	  C
E|--------------------------------(0)-----
B---------------------------------(3)-----
G|----------------------------0---(0)-----
D|------------0------------0h2----(2)-----	
A|---------0h2-0-3/5------------3-(3)-----
D|--3/5--5----------0----2----------------
Repeat 2x then build on the C chord


Very easy and a very cool guitar riff, sounds great on a Baritone. If you have no baritone 
tune to drop D grab a Tele put your toggle to the rear pick up and let it rip.This tab may 
not be spot on but for sure get you in the ballpark.
Have Fun and enjoy, I've made some corrections too. Sorry for the sloppy tab job earlier.

            
Hard to play? Try these video lessons and learn fast. | Correct




comments powered by Disqus
↑ Back to top | Tablatures and chords are parodies/interpretations of the original songs. You may use it for private study, scholarship, research or language learning purposes only