» » »

Chris Daughtry, No Surprise Tabs (ver.1)

Artists:  A B C D E F G H I J K L M N O P Q R S T U V W X Y Z # 

No Surprise Tabs (ver.1)

Chris Daughtry Tabs
 Rating:
4/5 (4 votes)
No Surprise lessons Tabs too difficult? Try these video lessons and learn fast
                PTL            DAUGHTRY – NO SURPRISE

           FROM THE ALBUM “LEAVE THIS TOWN”

BY SANJEEV GEORGE AND THOMAS GEORGE


Tuning: 1/2 step down

If u wish you can use a n acoustic guitar for the intro separately, but switching 
clean and distortion on just one guitar is also good enough
Intro

Guitar 1 (Acoustic)

eb|--------------------------------------------------------------|
Bb|--------------------------------------------------------------|
Gb|----9-9-9-----9-9-9-----9-9-9----9-9-9-----9-9-9--------------|
Db|----9-9-9-----9-9-9-----9-9-9----9-9-9-----9-9-9--------------|
Ab|--7---------7---------7--------7---------7--------------------|
Eb|--------------------------------------------------------------|


Verse 1

  E                                          B
I've practiced this for hours, gone round and round

                                     C#m
And now I think that I've got it all down

                                      A
And as I say it louder I love how it sounds

                                   F#m
Cause I'm not taking the easy way out
Not wrapping this in ribbons

                                A
Shouldn't have to give a reason why


Guitar 2
eb|-----------------------------------------------------|
Bb|-----------------------------------------------------|
Gb|------9----------------------------------------------|
Db|----9---9---9999999999999999-------------------------|
Ab|--7---------7777777777777777---9999999999999999------|
Eb|-------------------------------7777777777777777------|

eb|-------------------------------------------------------------|
Bb|-------------------------------------------------------------|
Gb|-------------------------------------------------------------|
Db|-------------------------------------------------------------|
Ab|-111111111111111111111111111111111----7777777777777777-------|
Eb|--9-9-9-9-9-9-9-9-9-9-9-9-9-9-9-9-----5555555555555555-------|

eb|----------------------------------------0-------------------|
Bb|----------2-----------------------0-------------------------|
Gb|------3-------3--------------2------------------------------|
Db|----4---4---4---4----------2---2----------------------------|
Ab|-------------------------0-----------0----------------------|
Eb|--2--------------------0------------------------------------|

Chorus

Guitar 1 with distortion

           E5
It's no surprise I won't be here tomorrow

             B5
I can't believe that I stayed till today

               C#5
Yeah you and I will be a tough act to follow

         A5                 B5                 E5
But I know in time we'll find this was no surprise


Guitar 2

eb|----------------------------------------|
Bb|-------------10-10-10-999---------------|
Gb|--9999999999--------------9-99----------|
Db|-------------------------------9-9v-----|
Ab|----------------------------------------|
Eb|----------------------------------------|


eb|---------------------------------------|
Bb|-10-10-10-999--------------------------|
Gb|--------------9------------------------|
Db|----------------9/11-11v---------------|
Ab|---------------------------------------|
Eb|---------------------------------------|

eb|--------------------------------------|
Bb|-10-10-10-999-----12v-----------------|
Gb|--------------9-9---------------------|
Db|--------------------------------------|
Ab|--------------------------------------|
Eb|--------------------------------------|

eb|----11-12p11—12p11-12v----------------|
Bb|-12--------------------12-------------|
Gb|--------------------------------------|
Db|--------------------------------------|
Ab|--------------------------------------|
Eb|--------------------------------------|


Then just before verse 2
eb|---0h2p0------------------------------|
Bb|---------0----------------------------|
Gb|-------------------2-1----------------|
Db|---------------1-2-----2v-------------|
Ab|-------------2------------------------|
Eb|--------------------------------------|


VERSE 2

Guitar 1 SAME CHORDS AS VERSE 1

It came out like a river once I let it out
When I thought that I wouldn't know how
Held onto it forever just pushing it down
Felt so good to let go of it now
Not wrapping this in ribbons
Shouldn't have to give a reason why


Guitar 2
e|------------------------------------------------------------------------------|
B|---5-4------------------------------------------------------------------------|
G|-------4v---------------------------------------------------------------------|
D|------------------------------------------------------------------------------|
A|-2----------------------------------------------------------------------------|
E|------------------------------------------------------------------------------|

e|------------------------------------------------------------------------------|
B|----5-4-----------------------------------------------------------------------|
G|--4-----4v--------------------------------------------------------------------|
D|------------------------------------------------------------------------------|
A|------------------------------------------------------------------------------|
E|------------------------------------------------------------------------------|

e|------------------------------------------------------------------------------|
B|------------------------------------------------------------------------------|
G|--1---1-2--1------------------------------------------------------------------|
D|----2---------2---------------------------------------------------------------|
A|------------------------------------------------------------------------------|
E|------------------------------------------------------------------------------|

e|------------------------------------------------------------------------------|
B|--5-5-----------5--------5----------------------------------------------------|
G|------4-2-1---4---4-2-1----4-2-2v---------------------------------------------|
D|------------2-----------------------------------------------------------------|
A|------------------------------------------------------------------------------|
E|------------------------------------------------------------------------------|


Chorus

          E5
It's no surprise I won't be here tomorrow

              B5
I can't believe that I stayed till today

                 C#5
There's nothing here in this heart left to borrow

                 A5                     B5
There's nothing here in this soul left to say

                E5
Don't be surprised when we hate this tomorrow

                B5
God knows we tried to find an easier way
                C#5
Yeah you and I will be a tough act to follow

         A5                  B5              E5
But I know in time we'll find this was no surprise


Bridge 1

Guitar 2
eb|-----11-12-11----11-12-11----11-12-11----11-12-11--------------------------|
Bb|--12----------12----------12----------12-----------10-10-10-999------------|
Gb|----------------------------------------------------------------99---------|
Db|-------------------------------------------------------------------9-9v----|
Ab|---------------------------------------------------------------------------|
Eb|---------------------------------------------------------------------------|

Somewhat like that…it’s tough to make out by ear.

eb|-----11-12-11-12-11-12v--------| no Surprise!!!!!
Bb|--12---------------------------|
Gb|-------------------------------|
Db|-------------------------------|
Ab|-------------------------------|
Eb|-------------------------------|

Guitar 1 with distortion

      E5
Our favorite place we used to go

      B5
The warm embrace that no one knows

       C#5
The loving look that's left your eyes

      A5                 B5             E5
That's why this comes as no, as no surprise

    E                                      Bm
If I could see the future and how this plays out

                                    C#m
I bet it's better than where we are now

      A                                         Bm
But after going through this, it's easier to see the reason why


Chorus repeats

Bridge 2

Guitar 1 with distortion

   E5
The kiss goodnight, it comes with me

      B5
Both wrong and right, our memories

      C#5                                A5                   B5
The whispering before we sleep, just one more thing that you can't keep

      E5
Our favorite place we used to go

      B5
The warm embrace that no one knows

       C#5
The loving look that's left your eyes

      A5                 B5             E5
That's why this comes as no, as no surprise

Guitar 2 as in bridge 1

| /  slide up
| \  slide down
| h  hammer-on
| p  pull-off
| v  vibrato
| +  harmonic
| x  Mute note
| ~   let ring


Please rate the tab.Thanks
            
Submit corrections

comments powered by Disqus
↑ Back to top | Chris Daughtry Tabs for No Surprise. Lyrics for acoustic guitar and electric guitar. Tablatures and chords are parodies/interpretations of the original songs. You may use it for private study, scholarship, research or language learning purposes only