» » »

Chris Cornell, Sunshower Tabs (ver.1)

Artists:  A B C D E F G H I J K L M N O P Q R S T U V W X Y Z # 

Sunshower Tabs (ver.1)

Chris Cornell Tabs
 Rating:
4/5 (4 votes)
Sunshower lessons Tabs too difficult? Try these video lessons and learn fast
                This is the best tab of this song...I had this so I had to share...:)


Written by Chris Cornell for the Great Expectations soundtrack (1997).
This transcription is just of the basic chord pattern. I not including some of the other guitar parts 
they run along the same lines as the guitar part here and are pretty easy to figure out.

Tuning: Standard


Intro

   1  ,  ,  ,  2  ,  ,  ,  3  ,  ,  ,  4  ,  ,  ,    1  ,  ,  ,  2  ,  ,  ,  3  ,  ,  ,  4  ,  ,  ,
||-3-----2-----0-----2-----------0-----------------|-------------------------------------0--0--0--0--|
||-3-----------------------------------3--------3--|----------3--------------------------3--3--3--3--|
||-2-----------------------------------0h(2)----2--|-0--------0--------------------------2-----------|
||-0-----------------------------------0-----0-----|-0--------0--------------------------------------|
||-------------------------------------------------|-2--------2--2-----------------------------------|
||-------------------------------------------------|-------------------1-----------1-----------------|

   1  ,  ,  ,  2  ,  ,  ,  3  ,  ,  ,  4  ,  ,  ,    1  ,  ,  ,  2  ,  ,  ,  3  ,  ,  ,  4  ,  ,  ,
 |----------0--------------------------0--0--------|-------------------------------------------------|
 |----------3-----3-----------3--------3--3--3--3--|-2-----------------2h(3)----3--3-----3--3--3--3--|
 |----------2-----2--------------------0--0--0--0--|-2--------2--------2--------2--2-----2--2--2--2--|
 |-------------------------------------------------|-2--------2--------2h(3)----3--3-----3--3--0-----|
 |-------------------1-----------1-----------------|-0-----------0-----0-----------0-----0-----------|
 |-0-----------0-----------------------------------|-------------------------------------------------|

Verse

   1  ,  ,  ,  2  ,  ,  ,  3  ,  ,  ,  4  ,  ,  ,    1  ,  ,  ,  2  ,  ,  ,  3  ,  ,  ,  4  ,  ,  ,
||-2-----0-----------0--------------------------0--|----------0-----------0-----0--------0--0--0--0--|
||-3-----3-----------3--------3--------------3--3--|----------3-----------3-----3--------3--3--3--3--|
||-2-----2-----------2-----------2-----0h(2)-2--2--|----------0-----------0-----0--------0--0--0--0--|
||-0-----------------------------------------0--0--|----------------------0--------------------------|
||-------------------------------------------------|-3-----------3--------3--------3-----------------|
||-------------------------------------------------|-------------------------------------------------|

   1  ,  ,  ,  2  ,  ,  ,  3  ,  ,  ,  4  ,  ,  ,    1  ,  ,  ,  2  ,  ,  ,  3  ,  ,  ,  4  ,  ,  ,
 |-2-----0-----------0--------------------------0--|----------0--------------------------0--0--0--0--|
 |-3-----3-----------3--------3--------------3--3--|----------3-----------------3--------3--3--3--3--|
 |-2-----2-----------2-----------2-----0h(2)-2--2--|----------0--------------------------0--0--0--0--|
 |-0-----------------------------------------0--0--|-------------------------------------------------|
 |-------------------------------------------------|-2-----------2--------1--------1-----------------|
 |-------------------------------------------------|-------------------------------------------------|

   1  ,  ,  ,  2  ,  ,  ,  3  ,  ,  ,  4  ,  ,  ,    1  ,  ,  ,  2  ,  ,  ,  3  ,  ,  ,  4  ,  ,  ,
 |-2-----0-----------0--------------------------0--|----------0--------------------------0--0--0--0--|
 |-3-----3-----------3--------3--------------3--3--|----------3--------------------------3--3--3--3--|
 |-2-----2-----------2-----------2-----0h(2)-2--2--|----------0--------------------------0--0--0--0--|
 |-0-----------------------------------------0--0--|-------------------------------------0--0--0--0--|
 |-------------------------------------------------|-2-----------2-----------------------------------|
 |-------------------------------------------------|----------------------1-------1------------------|

   1  ,  ,  ,  2  ,  ,  ,  3  ,  ,  ,  4  ,  ,  ,    1  ,  ,  ,  2  ,  ,  ,  3  ,  ,  ,  4  ,  ,  ,
 |----------0--------------------------0--0--------|-------------------------------------------------||
 |----------3----------------3---------3--3--3--2--|-2-----------------2h(3)----3--3-----3--3--3--3--||
 |-1--------1-----1--0-----------------0--0--0--2--|-2--------2--------2--------2--2-----2--2--2--2--||
 |-0--------------0--0-----------------0--0--0--2--|-2--------2--------2h(3)----3--3-----3--3--0-----||
 |-2-----------------1-----------1-----------------|-0-----------0-----0-----------0-----0-----------||
 |-0-----------------------------------------------|-------------------------------------------------||

Whenever this is played, the strumming varies a little.

Chorus

  1  ,  ,  ,  2  ,  ,  ,  3  ,  ,  ,  4  ,  ,  ,    1  ,  ,  ,  2  ,  ,  ,  3  ,  ,  ,  4  ,  ,  ,
|-2--------2--------2--------2-----2--------------||--2--------2--------2-----------0--------2--2-----|
|-3--------3--------3--------3-----3--------------||--3--------3--------3-----------3--------3--3--3--|
|-4--------4--------4--------4--4--4--------------||*-2--------2--------2--------2--2--------2--2--2--|
|-4--------4--4-----4--------4--4--4--------------||*-0--------0--------0--------0--0--------0--0--0--|
|-2-----------2-----2-----------2-----2-----4-----||--------------------------------------------------|
|-------------------------------------------------||--------------------------------------------------|

  1  ,  ,  ,  2  ,  ,  ,  3  ,  ,  ,  4  ,  ,  ,    1  ,  ,  ,  2  ,  ,  ,  3  ,  ,  ,  4  ,  ,  ,
|-2-----------------2-----------------------------|-2--------2--------0-----------------0--0---------|
|-2-----------------2--------2--------------------|-3--------3-----3--3--------3--------3--3--3--0---|
|-2--------2--------2--------2--------2--------2--|-4--------4-----4--4--------4--4-----4--4?-4--0---|
|-4--------4--4--4--4--------4--4--4--2h(4)-4--4--|-4--------4-----4--4--------4--4-----4--4--4--0---|
|-4--------4--4--4--4--------4--4--4--4-----4--4--|-2--------2--------0-----------0-----0--0--0--0---|
|-2--------2--2--2--4--------2--2--2--2-----2--2--|--------------------------------------------------|

  1  ,  ,  ,  2  ,  ,  ,  3  ,  ,  ,  4  ,  ,  ,    1  ,  ,  ,  2  ,  ,  ,  3  ,  ,  ,  4  ,  ,  ,
|-0--------0--0--0--0--------0-----------0--------||-2--------2--------2-----------0--------2--2-----|
|-0--------0--0--0--0--------0-----------0-----0--||-3--------3--------3--------3--3--------3--3--3--|
|-1--------1--1--1--1h(2)----2--2-----2--2--2--0-*||-2--------2--------2--------2--2--------2--2--2--|
|-2--------2--2--2--2--------2--2-----2--2--2--0-*||-0--------0--------0--------0--0--------0--0--0--|
|-2-----------2--2--2--------2--2-----2--2--2--0--||-------------------------------------------------|
|-0-----------0--0--0--------0--0-----0--0--0--0--||-------------------------------------------------|

  1  ,  ,  ,  2  ,  ,  ,  3  ,  ,  ,  4  ,  ,  ,    1  ,  ,  ,  2  ,  ,  ,  3  ,  ,  ,  4  ,  ,  ,
|-3--------3--------3-----------------3--3-------|-0--------0--------1--------1--------1--1--------|
|-1--------1--1--1--1--------1--------1--1--1--1-|-3--------3--------3--------3--------3--3--3--3--|
|-2--------2--2--2--2-----------2-----2--2--2--2-|-0--------0--0--0--0--------0-----0--0--0--0--0--|
|-1--------1--1--1--1-----------------1--1--1--1-|-0--------0--0--0--0--------0-----0--0--0-----0--|
|------------------------------------------------|-2--------2--2--2--2--------2-----2--2--2--------|
|------------------------------------------------|-------------------------------------------------|

  1  ,  ,  ,  2  ,  ,  ,  3  ,  ,  ,  4  ,  ,  ,    1  ,  ,  ,  2  ,  ,  ,  3  ,  ,  ,  4  ,  ,  ,
|-------------------------------------------------|-0-----------------------------------------------||
|-3-----------------------------------------------|-3-----------------------------------------------||
|-3-----------------------------------------------|-0-----------------------------------------------||
|-3-----------------------------------------------|-2-----------------------------------------------||
|-1-----------------------------------------------|-0-----------------------------------------------||
|-------------------------------------------------|-------------------------------------------------||

Then play this after each chourus.

    1  ,  ,  ,  2  ,  ,  ,  3  ,  ,  ,  4  ,  ,  ,    1  ,  ,  ,  2  ,  ,  ,  3  ,  ,  ,  4  ,  ,  ,
(play 4 times)
||--14-------0--------0--------0--------0-----0----||-------------------------------------------------|
||--15-------15-------15-------14-------12----10---||-------------------------------------------------|
||*-14-------14-------0--------0--------0-----0---*||----------------------------------6--7-----7--6--|
||*-0--------0--------0--------0--------0-----0---*||----------------------------------------9--------|
||-------------------------------------------------||-------------------------------------------------|
||-------------------------------------------------||-------------------------------------------------|
|
|
|
|
|
|
||-------------------------------------------------||-------------------------------------------------|
||-------------------------------------------------||-------------------------------------------------|
||*-----------------------------------------------*||-------------------------------------------------|
||*----------7--------5---------------------------*||-------------------------------------------------|
||--5----------------------------------------------||-------------------------------------------------|
||-------------------------------------------------||-------------------------------------------------|

  1  ,  ,  ,  2  ,  ,  ,  3  ,  ,  ,  4  ,  ,  ,    1  ,  ,  ,  2  ,  ,  ,  3  ,  ,  ,  4  ,  ,  ,
|----------5--------5--------5--------5--5-------||
|----------5--------5--------5--------5--5-------||
|----------6--------7--------7--7-----7--7--7--7-||
|-7--------7--------7--------7--7-----7--7--7--7-||
|----------0--------0--------0--0-----0--0--0--0-||
|------------------------------------------------||
|
|
|
|
|
|
|----------5--------5----------------------------||
|----------5--------5----------------------------||
|----------6--------7----------------------------||
|----------7--------7----------------------------||
|----------0--------0----------------------------||
|------------------------------------------------||
            
Submit corrections

comments powered by Disqus
↑ Back to top | Chris Cornell Tabs for Sunshower. Lyrics for acoustic guitar and electric guitar. Tablatures and chords are parodies/interpretations of the original songs. You may use it for private study, scholarship, research or language learning purposes only