» » »

Poison Eye Tabs (ver.2)

Artists:  A B C D E F G H I J K L M N O P Q R S T U V W X Y Z # 

Poison Eye Tabs (ver.2)

Chris Cornell
Rating:
5/5 (1 vote)

Hard to play? Try these video lessons and learn fast.
                Chris Cornell - Poison Eye



Main Riff

e|----------------------------------------------------|
b|----------------------------------------------------|
g|--0h2-2---5---7-------------------0h2-2---5---2-----|
d|--0h2-2---5---7---5-----5h6p5~----0h2-2---5---2-----|
a|--0---0---3---5---5-----5h6p5~----0---0---3---0-----|
e|------------------3-----3h6p5~----------------------|

Pre-Chorus


e|-----------------------------|
b|-----------------------------|
g|--x-x-x-x--0h2-2---5---2-----|
d|--x-x-x-x--0h2-2---5---2-----|
a|--x-x-x-x--0---0---3---0-----|
e|-----------------------------|




Chorus Chords

e|--------------------------------|
b|--------------------------------|
g|--4---2---3---5---4-------6-----|
d|--4---2---3---5---4---4---6-----|
a|--2---0---1---3---2---4---4-----|
e|----------------------2---------|

all i got atm.
            
Hard to play? Try these video lessons and learn fast. | Correct




comments powered by Disqus
↑ Back to top | Tablatures and chords are parodies/interpretations of the original songs. You may use it for private study, scholarship, research or language learning purposes only