» » »

Chris Cornell, Pillow Of Your Bones Tabs (ver.2)

Artists:  A B C D E F G H I J K L M N O P Q R S T U V W X Y Z # 

Pillow Of Your Bones Tabs (ver.2)

Chris Cornell Tabs
 Rating:
3.7/5 (6 votes)
Pillow Of Your Bones lessons Tabs too difficult? Try these video lessons and learn fast
1
                Chris Cornell - "Pillow of Your Bones"
Euphoria Morning, 1999

Please rate my tabs so others will check them out.

Intro Riff (play 2x):
e|----------------------|--------------------------|
B|----------------------|--------------------------|
G|-5--5p3-----3---3-5-3-|------------5-------------|
D|-5--5---5---4---4____-|-3h4p3---------4--3-------|
A|-3--3____---3---3____-|------6--3-----------6--3-|
E|----------------------|--------------------------|

Verse Riff (5/4 time, 5 beats per bar) 
e|-8----8--8---8----8--8---7---|-7--7---6----6--6----6--5-5---5-5-|
B|-8----8--8---9----9--9---8---|-8--8---7----7--7----7--6-6---6-6-|
G|-8----8--8---8----8--8---7---|-7--7---8----8--8----8--5-5---5-5-|
D|-10---10-10--10---10-10--9---|-9--9---8----8--8----8--7-7---7-7-| x4
A|-10---10-10--11---11-11--10--|-10-10--6----6--6----6------------|
E|-8----8--8-------------------|----------------------------------|


Prechorus (4/4 time): play 3x but play only first bar on 3rd time.
   Bm               Bmaj7        Bb 
e|-7---7---7-7--7---7---7--7-7-|-6---6---6-6--6---6---6--6-6-|
B|-7---7---7-7--7---7---7--7-7-|-6---6---6-6--6---6---6--6-6-|
G|-7---7---7-7--7---7---7--7-7-|-7---7---7-7--7---7---7--7-7-|
D|-9---9---9-9--9---8---8--8-8-|-8---8---8-8--8---8---8--8-8-|
A|-9---9---9-9--9---9---9--9-9-|-8---8---8-8--8---8---8--8-8-|
E|-7---7---7-7--7---7---7--7-7-|-6---6---6-6--6---6---6--6-6-|
 Bar1                          Bar2

Chorus (play all 4 bars of each part 2x):
Acoustic
e|---------------------------|---------------------------|
B|-8--8--8-8-x--7--7--7--7-7-|-8--8--8-8-x--7--7--7--7-7-|
G|-8--8--8-8-x--7--7--7--7-7-|-8--8--8-8-x--7--7--7--7-7-|
D|-8--8--8-8-x--7--7--7--7-7-|-8--8--8-8-x--7--7--7--7-7-|
A|-6--6--6-6-x--5--5--5--5-5-|-6--6--6-6-x--5--5--5--5-5-|
E|---------------------------|---------------------------|
 |
 | Electric (light distotion)
e|---------------------------|---------------------------|
B|-------7------------7----7-|-------7------------7----7-|
G|---------------------------|---------------------------|
D|----8------------7-----7---|----8------------7-----7---|
A|-6------------5------------|-6------------5------------|
E|---------------------------|---------------------------|

continued:
 acoustic
e|-2--2--2-2-x--2--2--2--2-2-|-1--1--1-1-x-1--1--1--1-1-|
B|-2--2--2-2-x--3--3--3--3-3-|-3--3--3-3-x-3--3--3--3-3-|
G|-3--3--3-3-x--4--4--4--4-4-|-3--3--3-3-x-1--1--1--1-1-|
D|-4--4--4-4-x--4--4--4--4-4-|-3--3--3-3-x-3--3--3--3-3-|
A|-4--4--4-4-x--2--2--2--2-2-|-1--1--1-1-x-1--1--1--1-1-|
E|-2--2--2-2-x--------------|--------------------------|
 |
 |Electric
e|---------------------------|--------------------------|
B|--------------------3----3-|-------3------------------|
G|-------3-------------------|-------------------1----3-|
D|-----------------4-----4---|----3-----------3-----3---|
A|----4---------2------------|-1-----------1------------|
E|-2-------------------------|--------------------------|

Both guitars then play intro


After Chorus 2, Electric  Lick :
e|-----------------------------------|
B|-----------------------------------|
G|-------3-------------3-------------|
D|-0h3h5---5\3---0h3h5---5p3-5p3-----|
A|-----------------------------------| some miscallaneous noises
E|-----------------------------------| from 'tape' effects area also heard


The next part is all synth and vocals, until the acoustic plays:
e|------------------------|------------------------|-2--2--2-2---2-2-2--2-2-|
B|-4--4--4-4---3-3-3--3-3-|-4--4--4-4---3-3-3--3-3-|-2--2--2-2---3-3-3--3-3-|
G|-3--3--3-3---2-2-2--2-2-|-3--3--3-3---2-2-2--2-2-|-3--3--3-3---4-4-4--4-4-|
D|-5--5--5-5---0-0-0--0-0-|-5--5--5-5---0-0-0--0-0-|-4--4--4-4---4-4-4--4-4-|
A|-6--6--6-6---0-0-0--0-0-|-6--6--6-6---0-0-0--0-0-|-4--4--4-4---2-2-2--2-2-|
E|------------------------|------------------------|-2--2--2-2--------------|

e|-1--1--1-1--1--1--1--1-1-|
B|-3--3--3-3--3--3--3--3-3-|
G|-3--3--3-3--1--1--1--1-1-|
D|-3--3--3-3--3--3--3--3-3-|
A|-1--1--1-1--1--1--1--1-1-|
E|-------------------------|


Play Chorus 2x to get to ending (Same as the part with 'Electric Lick').


KEY:

| /  slide up
| \  slide down
| h  hammer-on
| p  pull-off
| ~  vibrato
| +  harmonic
| x  Mute note
| PM palm mute
| TP tremelo picked
| b  string bend
| r  release of bent string
            
Submit corrections

comments powered by Disqus
↑ Back to top | Chris Cornell Tabs for Pillow Of Your Bones. Lyrics for acoustic guitar and electric guitar. 1 Tablatures and chords are parodies/interpretations of the original songs. You may use it for private study, scholarship, research or language learning purposes only