>
 >
Pillow Of Your Bones

Pillow Of Your Bones Guitar Tabs

Chris Cornell - Pillow Of Your Bones chords, tabs, tablatures, lyrics

Guitar lessons | Add/correct | Request | Top 50 tabs Artists:  A B C D E F G H I J K L M N O P Q R S T U V W X Y Z 0-9

Pillow Of Your Bones Guitar Tabs – Chris Cornell

CD, Sheet music, Poster

Do you like Pillow Of Your Bones? Share with your friends now
TabsTabs v2Tabs v3Tabs v4
-------------------------------------------------------------------------------
-------------------------------------------------------------------------------

Tuning: E A D G B e capo 1. fret     or
        F BbEbAbC f (up one half step)

Guitar 1: Acoustic
Guitar 2: Electric

INTRO

Guitar 1:
  Bm            Ddim          E7/g#       Bm7b5/a(?)
e|2-----2-2-2-2-1-----1-1-1-1-0h1p0-0-----1-0--------------------------------|
B|0-----0-0-0-0-0-----0-0-0-0-0-------0---0---3-0----------------------------|
G|2-----2-2-2-2-1-----1-1-1-1------------------------------------------------|
D|---------------------------------------------------------------------------|
A|---------------------------------------------------------------------------|
E|---------------------------------------------------------------------------|

Guitar 2:
  Bm            Ddim          E7/g#       Bm7b5/a     
e|---------------------------------------------------------------------------|
B|---------------------------------------------------------------------------|
G|------4p2-----------4p2-------------2-4------------------------------------|
D|---------------------------------------------------------------------------|
A|2---2-2---2---2---2-2---2---2*2*2*5-2---2-2-5-2----------------------------|
E|---------------------------------------------------------------------------|
  *same rhytm as Guitar 1


VERSE

Bm         G/d    F#7/e  Dm6/f     E7
The embers of the saint inside of you...


2nd VERSE RIFF

Guitar 2 (muttered w. distortion):
  Hm       G/d       F#7/e    Dm6/f       E7     
e|---------------------------------------------------------------------------|
B|--------------3------------------------------------------------------------|
G|4---2h4-4-2h4---4-------3--4-----------------------------------------------|
D|---------------------44------3-2p0-2p0-2-0-2h3-2p0-------------------------|
A|---------------------------------------------------0h2---------------------|
E|---------------------------------------------------------------------------|


BRIDGE (no guitar on the album...)

Bb  Gm6/bb     A7sus  A7        Bb 
Colorful and falling from your mouth
       Gm6/bb  A7sus A7   Bb
Like a painted fever in recoil
      Gm6/bb     
Like a lie without the pain

Guitar 1:
  Bm     G/d    F#7/e   Dm6/f     E7      Bb    Gm6/bb  A7sus     A7 
e|7-------7-------6-------5-------4-------1-------0-------0-------0----------|
B|7-------8-------5-------3-------3-------3-------3-------3-------2----------|
G|7-------7-------6-------4-------4-------3-------3-------0-------0----------|
D|9-------0-------4-------3-------2-------3-------2-------2-------2----------|
A|9---------------4---------------2-------1-------1-------0-------0----------|
E|7---------------0---------------0------------------------------------------|


CHORUS

Dm     Db            Dm           Db              F
On a pillow of your bones I will lay across the stones
         Bbm             A                   Dm
Of your shore until the tide comes crawling back
          Db            Dm          Db             F
Throw my pillow on the fire make my bed under the eye
        Bbm             A                   Intro...
Of your moon until the tide comes crawling back

Guitar 1:
  Dm      Db      F      Bbm      A
e|5-------4-------1-------1-------0------------------------------------------|
B|6-------6-------1-------2-------2------------------------------------------|
G|7-------6-------2-------3-------2------------------------------------------|
D|7-------6-------3-------3-------2------------------------------------------|
A|5-------4-------3-------1-------0------------------------------------------|
E|----------------1----------------------------------------------------------|

Guitar 2:
  Dm      Db      Dm      Db      F      Bbm      A       A 
e|---------------------------------------------------------------------------|
B|----6------6--6-----6------6--6------------2--2-----2------2---------------|
G|------------------------------------2--------------------------2-----------|
D|--7------6---6----7------6---6-----------3---3----2------2---2-------------|
A|5------4--------5------4----------3----1--------0------0-------------------|
E|--------------------------------1------------------------------------------|


INTRO RIFF after 2nd CHORUS

Guitar 2:
  Bm      Ddim    E7/g#          Bm7b5/a 
e|---------------------------------------------------------------------------|
B|---------------------------------------------------------------------------|
G|---------------------2-----------2-----------------------------------------|
D|-----------------004---2b3-0-4-----2h0-2h0---------------------------------|
A|---------------------------------------------------------------------------|
E|---------------------------------------------------------------------------|


SYNTH PIECE (no guitar on the album...)

Bb    Gm6/bb               Dm    A/C#    Eb/g   Bb
Even though the truth can burn inside or fall behind
       Gm6/bb               Dm  A/C#     Eb/g     D/f#    G/b     Chorus...
I will wander through your open mind and you will find no lie can hide

Until the tide comes crawling

Guitar 1:
  A/c#  Eb/g     D/f#    G/h
e|5-------3-------2-------3--------------------------------------------------|
B|5-------4-------3-------3--------------------------------------------------|
G|6-------3-------2-------0--------------------------------------------------|
D|x-------5-------4-------0--------------------------------------------------|
A|4-------6-------5-------2--------------------------------------------------|
E|--------3-------2----------------------------------------------------------|


| /  slide up
| \  slide down
| h  hammer-on
| p  pull-off
| ~  vibrato
| +  harmonic
| x  Mute note
===============================================================================





Comments


Popular Chris Cornell tabs & chords
Ground Zero 1 Chords
Killing Birds Chords
Scream Chords
Whats So Funny About Peace Love And Understanding Chords
You Know My Name 5 Chords
You Know My Name 5 Chords
Mission Tabs
Poison Eye 1 Tabs
Shell Never Be You Man Intro Tabs
Sunshower Tabs


Song lyrics



↑ Back to top | Tablatures and chords are parodies/interpretations of the original songs. You may use it for private study, scholarship, research or language learning purposes only
© 2014 AZChords.com Contact us | Privacy policy | DMCA | Add/correct tabs | Request tabs | Top 50 tabs