» » »

Chris Cornell, No Such Thing Tabs (ver.1)

Artists:  A B C D E F G H I J K L M N O P Q R S T U V W X Y Z # 

No Such Thing Tabs (ver.1)

Chris Cornell Tabs
 Rating:
4/5 (7 votes)
No Such Thing lessons Tabs too difficult? Try these video lessons and learn fast
1
                Intro and Chorus:

When sliding go all the way down 

e|---------------------------------------------------------------------------|
B|---------------------------------------------------------------------------|
G|---------------------------------------------------------------------------|
D|---------------------------------------------------------------------------|
A|-\2--8-2-8-9-10\---5-5-10-11-12\----7-7-12-13-14\----2--2--8-9--12---------|
E|-\0--6-0-6-7-8-\---3-3-8--9--10\----5-5-10-11-12\----0--0--6-7--10---------|

e|---------------------------------------------------------------------------|
B|---------------------------------------------------------------------------|
G|---------------------------------------------------------------------------|
D|---------------------------------------------------------------------------|
A|--2--8-2-8-9-10\---5-5-10-11-12\----7-7-12-13-14\----2--2--8-9--12---------|
E|--0--6-0-6-7-8-\---3-3-8--9--10\----5-5-10-11-12\----0--0--6-7--10---------|




Verse:

    Em    Dm    Am   C    D
e|---7-----5----5---------2--------------------------------------------------|
B|---8-----6----5----5----3--------------------------------------------------|
G|---9-----7----5----5----2--------------------------------------------------|
D|---9-----7----7----5----0--------------------------------------------------|
A|---7-----5----7----3-------------------------------------------------------|
E|---------------------------------------------------------------------------|



Em                     Dm
Saw the world, it was beautiful

        Am                        C
But the rain got in and ruined it all

Em                  Dm
Then I tried to be invisible

        Am
It was impossible

         C   Em                            D
Even for me    I laughed at love, it was a big mistake

        Am          C
In the absence of I filled it with hate 






Bridge:

e|---------------------------------------------------------------------------|
B|-5-------------------------------------------------------------------------|
G|-5-----------------------------------------------4-------------------------|
D|-5-----5---------5-------7----5----------5-------5----5-5--5---------5-----|
A|-3--7----7--3--7---7-----7-7-----7----7-----7----5-----------5-----5-------|
E|-------------------------5----------5------------3---------------3---------|


e|------------------------------------------------------------------------------|
B|-5-------------------------------------------------------------------------12-|
G|-5----------------------------------------4-----------------------------------|
D|-5-----5-------5-----5-----9-7-5----------5----5-5--5------------9p7p5-5------|
A|-3--7----------7--7----7---------7--------5------------5-----5-----------5----|
E|---------------5--------------------------3---------------3-------------------|


Palm mute
e|---------------------------------------------------------------------------|
B|---------------------------------------------------------------------------|
G|--9-------7-------2-------5------------------------------------------------|
D|--9-------7-------2-------5------------------------------------------------|
A|--7(x8)---5(X8)---0(X8)---3(X8)--------------------------------------------|
E|---------------------------------------------------------------------------|
            
Submit corrections

comments powered by Disqus
↑ Back to top | Chris Cornell Tabs for No Such Thing. Lyrics for acoustic guitar and electric guitar. 1 Tablatures and chords are parodies/interpretations of the original songs. You may use it for private study, scholarship, research or language learning purposes only