» » »

Chris Cornell, No Such Thing Bass tabs (ver.1)

Artists:  A B C D E F G H I J K L M N O P Q R S T U V W X Y Z # 

No Such Thing Bass tabs (ver.1)

Chris Cornell Tabs
 Rating:
4/5 (4 votes)
No Such Thing lessons Tabs too difficult? Try these video lessons and learn fast
1
                

Intro
G|------------------------------------------------------------------------| 
D|------------------------------------------------------------------------| 
A|----------------------------------------------------5-------------------| 
E|-12/0-6--0-6-7-8/3--3-8-9-10/5--5-10-11-12/0--0-6-7---------------------| 

G|------------------------------------------------------------------------| 
D|------------------------------------------------------------------------| 
A|--------------------------------------------------5---------------------| 
E|--0-6--0-6-7-8/3--3-8-9-10/5--5-10-11-12/0--0-6-7-----------------------|

G|------------------------------------------------------------------------| 
D|------------------------------------------------------------------------| 
A|--------------------------------------------------5---------------------| 
E|--0-6--0-6-7-8/3--3-8-9-10/5--5-10-11-12/0--0-6-7-----------------------|

G|------------------------------------------------------------------------| 
D|------------------------------------------------------------------------| 
A|--------------------------------------------------5---------------------| 
E|--0-6--0-6-7-8/3--3-8-9-10/5--5-10-11-12/0--0-6-7-----------------------|

Verse I 
G|------------------------------------------------------------------------| 
D|------------------------------------------------------------------------| 
A|-----R--------E--------S--------T---------------------------------------| 
E|------------------------------------------------------------------------|

G|------------------------------------------------------------------------| 
D|------------------------------------------------------------------------| 
A|-----R--------E--------S--------T---------------------------------------| 
E|------------------------------------------------------------------------|

G|------------------------------------------------------------------------| 
D|------------------------------------------------------------------------| 
A|--7----------------5---------------------------------3--------5---------| 
E|------------------------------------5-----------------------------------|

Chorus
G|------------------------------------------------------------------------| 
D|------------------------------------------------------------------------| 
A|--------------------------------------------------5---------------------| 
E|--0-6--0-6-7-8/3--3-8-9-10/5--5-10-11-12/0--0-6-7-----------------------|

G|------------------------------------------------------------------------| 
D|------------------------------------------------------------------------| 
A|--------------------------------------------------5---------------------| 
E|--0-6--0-6-7-8/3--3-8-9-10/5--5-10-11-12/0--0-6-7-----------------------|

Verse II
G|------------------------------------------------------------------------| 
D|------------------------------------------------------------------------| 
A|--7-7-7-7-7-7-7-7-7-7-7-7-7-7-7-7-5-5-5-5-5-5-5-5-5-5-5-5-5-5-5-5-------|
E|------------------------------------------------------------------------|

G|------------------------------------------------------------------------| 
D|------------------------------------------------------------------------| 
A|----------------------------------3-3-3-3-3-3-3-3-5-5-5-5-5-5-5-5-------| 
E|--5-5-5-5-5-5-5-5-5-5-5-5-5-5-5-5---------------------------------------|

G|------------------------------------------------------------------------| 
D|------------------------------------------------------------------------| 
A|--7-7-7-7-7-7-7-7-7-7-7-7-7-7-7-7-5-5-5-5-5-5-5-5-5-5-5-5-5-5-5-5-------|
E|------------------------------------------------------------------------|

G|------------------------------------------------------------------------| 
D|------------------------------------------------------------------------| 
A|----------------------------------3-3-3-3-3-3-3-3-5-5-5-5-5-5-5-5-------| 
E|--5-5-5-5-5-5-5-5-5-5-5-5-5-5-5-5---------------------------------------|


G|------------------------------------------------------------------------| 
D|------------------------------------------------------------------------| 
A|--7-7-7-7-7-7-7-7-7-7-7-7-7-7-7-7-5-5-5-5-5-5-5-5-5-5-5-5-5-5-5-5-------|
E|------------------------------------------------------------------------|

G|------------------------------------------------------------------------| 
D|------------------------------------------------------------------------| 
A|----------------------------------3-3-3-3-3-3-3-3-----------------------| 
E|--5-5-5-5-5-5-5-5-5-5-5-5-5-5-5-5-----------------0/--------12----------|


Chorus
G|------------------------------------------------------------------------| 
D|------------------------------------------------------------------------| 
A|--------------------------------------------------5---------------------| 
E|--0-6--0-6-7-8/3--3-8-9-10/5--5-10-11-12/0--0-6-7-----------------------|

G|------------------------------------------------------------------------| 
D|------------------------------------------------------------------------| 
A|--------------------------------------------------5---------------------| 
E|--0-6--0-6-7-8/3--3-8-9-10/5--5-10-11-12/0--0-6-7-----------------------|

G|------------------------------------------------------------------------| 
D|------------------------------------------------------------------------| 
A|--------------------------------------------------5---------------------| 
E|--0-6--0-6-7-8/3--3-8-9-10/5--5-10-11-12/0--0-6-7-----------------------|

G|------------------------------------------------------------------------| 
D|------------------------------------------------------------------------| 
A|--------------------------------------------------5---------------------| 
E|--0-6--0-6-7-8/3--3-8-9-10/5--5-10-11-12/0--0-6-7-----------------------|

Interlude
G|------------------------------------------------------------------------| 
D|--------------------------------------------------------9---------------| 
A|--3----3/0------------------3----3/0------------------------------------| 
E|--------------3----5-6-7----------------3----5-6-7--5-7---8-7-----------|

Verse III 
G|------------------------------------------------------------------------| 
D|------------------------------------------------------------------------| 
A|-----R--------E--------S--------T---------------------------------------| 
E|-------------------------------------0/-------12------------------------|

Chorus
G|------------------------------------------------------------------------| 
D|------------------------------------------------------------------------| 
A|--------------------------------------------------5---------------------| 
E|--0-6--0-6-7-8/3--3-8-9-10/5--5-10-11-12/0--0-6-7-----------------------|

G|------------------------------------------------------------------------| 
D|------------------------------------------------------------------------| 
A|--------------------------------------------------5---------------------| 
E|--0-6--0-6-7-8/3--3-8-9-10/5--5-10-11-12/0--0-6-7-----------------------|

G|------------------------------------------------------------------------| 
D|------------------------------------------------------------------------| 
A|--------------------------------------------------5---------------------| 
E|--0-6--0-6-7-8/3--3-8-9-10/5--5-10-11-12/0--0-6-7-----------------------|

G|------------------------------------------------------------------------| 
D|------------------------------------------------------------------------| 
A|--------------------------------------------------5---------------------| 
E|--0-6--0-6-7-8/3--3-8-9-10/5--5-10-11-12/0--0-6-7-----------------------|

G|------------------------------------------------------------------------| 
D|------------------------------------------------------------------------| 
A|--------------------------------------------------5---------------------| 
E|--0-6--0-6-7-8/3--3-8-9-10/5--5-10-11-12/0--0-6-7-----------------------|

G|------------------------------------------------------------------------| 
D|------------------------------------------------------------------------| 
A|--------------------------------------------------5---------------------| 
E|--0-6--0-6-7-8/3--3-8-9-10/5--5-10-11-12/0--0-6-7-----------------------|
            
Submit corrections

comments powered by Disqus
↑ Back to top | Chris Cornell Bass for No Such Thing. Lyrics for acoustic guitar and electric guitar. 1 Tablatures and chords are parodies/interpretations of the original songs. You may use it for private study, scholarship, research or language learning purposes only