>
 >
Mission

Mission Guitar Tabs

Chris Cornell - Mission chords, tabs, tablatures, lyrics

Guitar lessons | Add/correct | Request | Top 50 tabs Artists:  A B C D E F G H I J K L M N O P Q R S T U V W X Y Z 0-9

Mission Guitar Tabs – Chris Cornell

CD, Sheet music, Poster

Do you like Mission? Share with your friends now
TabsTabs v2
Chris Cornell - 'Mission'
Standard Tuning 

Some of the sounds are made with a guitar with a whammy bar. Enjoy and rate me.

Main Riff (Intro and Verses):
e|-----------------|-----------------|----------------|-----------1-0----|
B|-----------------|-----------------|----------------|---------------3--|
G|-------------3b4-|-------------3b4-|--------------0-|-----0-2-3--------|
D|----0h2----2-----|----0h2----2-----|----0h2-----3---|---2--------------|
A|-----------------|-----------------|----------------|------------------|
E|-0------0h3------|-0------0h3------|-0------0-3-----|-0----------------|


Riff 2 (play 2x)
e|-----------------|-----------1-0----|
B|-----------------|---------------3--|
G|---------------0-|-----0-2-3--------|
D|-----0h2-----3---|---2--------------|
A|-----------------|-0----------------| 
E|-0-------0-3-----|------------------|
"I'm gonna climb ..."


Riff 3
e|-----------------|---3-2-----------|
B|-----------------|-------4---------|
G|---------------0-|---------4-----0-|
D|-----0h2---0-4---|-----------------|
A|---------1-------|-2---------1-0---|
E|-0---------------|-----------------|
“Tear all your temples down”


Chorus: Play Main Riff 2x
During Chorus, Guitar 2 comes in (w/ fuzz distortion)
e|-------------------------|
B|-------------------------|
G|-------------------------|
D|-------------------------| play 8x total
A|---5---5h7-------5---5h7-|
E|-0---0-----0---0---0-----|


Interlude 1:
e|-12-----12-11-10-|-(10)---------------|---------------------|--------------|
B|-----------------|---------10b11r10-8-|-10b11--8--------8---|--------------|
G|-----------------|--------------------|----------9--7h9---9-|--------------|
D|-----------------|--------------------|---------------------|-8~-----------|
A|-----------------|--------------------|---------------------|-------x--x-x-|
E|-----------------|--------------------|---------------------|-------x--x-x-|



Verse 2- Guitar 2 (acoustic sound)    Guitar 1 (on 4th & 8th bar of verse 2)
e|-------------------|               |-----------1-0----|
B|----------------3--|               |---------------3--|
G|-----------3b4-----|               |-----0-2-3--------|
D|-----0h2-----------|               |------------------|
A|-------------------| play 8x       |------------------|
E|-0-0-----0---------|               |------------------|


Before second Chorus, play Riff 2 and Riff 3 again

Play Chorus again
Play Interlude 1 2x


Break                                      * hit strings hard and use whammy bar
e|--6-----------|--3-------/--|-----------|---------------------------------|
B|--6-----------|--3-------/--|--18-------|--18--18--18--18--18--18--18--18-|
G|--7-----------|--4-------/--|--16-------|--16--16--16--16--16--16--16--16-|
D|--8-----------|--5-------/--|--15-------|--15--15--15--15--15--15--15--15-|
A|--8-----------|--5-------/--|--16-------|--16--16--16--16--16--16--16--16-|
E|--6-----------|--3-------/--|-----------|---------------------------------|
  "I have nothing, but then the have is not as good as the want!"

Play Main Riff
Play Interlude 1

Verse 3 - No Guitar

Play end of Riff 3 before Playing chorus the third time.
Play Chorus
Play Interlude 1, then Interlude 2:

Interlude 2:
e|-12-----12-11-14b15-|-(b15)------------------|--------------------|--------|
B|--------------------|-----------10b(11)r10-8-|10b11-p8--------8---|--------|
G|--------------------|------------------------|----------9-7h9---9-|--------|
D|--------------------|------------------------|--------------------|-8~-----|
A|--------------------|------------------------|--------------------|--------|
E|--------------------|------------------------|--------------------|--------|

Play Break to finish song

KEY:

| /  slide up
| \  slide down
| h  hammer-on
| p  pull-off
| ~  vibrato
| +  harmonic
| x  Mute note
| PM palm mute
| TP tremelo picked
| b  string bend
| r  release of bent string





Comments


Popular Chris Cornell tabs & chords
Long Gone 2 Chords
Scar On The Sky 1 Chords
Scream Chords
Sweet Euphoria Chords
Disappearing Act Tabs
Mission 1 Tabs
Sunshower Tabs
Never Far Away Ukulele
Preaching The End Of The World Ukulele
Scar On The Sky Ukulele


Song lyrics



↑ Back to top | Tablatures and chords are parodies/interpretations of the original songs. You may use it for private study, scholarship, research or language learning purposes only
© 2014 AZChords.com Contact us | Privacy policy | DMCA | Add/correct tabs | Request tabs | Top 50 tabs