>
 >
Disappearing One

Disappearing One Guitar Tabs

Chris Cornell - Disappearing One chords, tabs, tablatures, lyrics

Guitar lessons | Add/correct | Request | Top 50 tabs Artists:  A B C D E F G H I J K L M N O P Q R S T U V W X Y Z 0-9

Disappearing One Guitar Tabs – Chris Cornell

CD, Sheet music, Poster

Do you like Disappearing One? Share with your friends now
ChordsTabsUkulele
Chris Cornell - Dissapearing One
standard tuning


Verse Rhythm part may have a Capo on 4th fret, but I wrote it as standard tuning


Intro - Horns/Synthesizer

Verse Rhythm part- at 0:24 after

"What have you done, my little spark?
Cursing my name cause again I put you out"

   Db  B/Db  Ab         Ab/C         Dbm         B            Bb7       Amaj7 A7
e|--------|------------------------|------------------------|-------------------------|
B|--------|------------------------|-5----5---xx-4----4---x-|-------------------------|
G|-6--6-4-|-5----5---xx-8----8---x-|-6----6---xx-4----4---x-|-7-----7-----6-----6---x-|
D|-6--6-4-|-6----6---xx-6----6---x-|-6----6---xx-4----4---x-|-6-----6-----6-----5---x-|
A|-4--4-4-|-6----6---xx-6----6---x-|-4----4---xx-2----2---x-|-8-----8-----7-----7---x-|
E|--------|-4----4---xx-8----8---x-|------------------------|-6-----6-----5-----5---x-|
           "Falling apart,    you tell yourself you are  dreaming only of the ones who"


   2 beats                   PreChorus - play 2x
   Ab   Gb                  Dbm       Db7/B       Eb7
e|------------|            |---------------------|-6-----6---6-6-----6-6-6-6-|
B|------------|            |-5----5--------------|-8-----8---8-8-----8-8-8-8-|
G|-5----3-----|            |-6----6----4----4----|-6-----6---6-6-----6-6-6-6-|
D|-6----4-----|            |-6----6----6----6----|-8-----8---8-8-----8-8-8-8-|
A|-6----4-----|            |-4----4----x----x----|-6-----6---6-6-----6-6-6-6-|
E|-4----2-----|            |-----------7----7----|---------------------------|
"never dreamed of you"


Prechorus Lead (played 2x with above PreChorus part):
e|------------------------------|------------------------------|
B|------5b7r5---5/7-7/9-9/11-11-|-11b12r11---------------------|
G|------------------------------|-----------12~~~--------------|
D|------------------------------|------------------------------|
A|------------------------------|------------------------------|
E|------------------------------|------------------------------|
 |
 | Overdub Guitar
e|------------------------------|------------------------------|
B|------------------------------|------------------------------|
G|---------------6---8---8b9-b9-|-8b9r8-----6------------------|
D|-6----------------------------|------------------------------|
A|------------------------------|------------------------------|
E|------------------------------|------------------------------|

Chorus
  Rhythm       E/Eb          Dbm         Caug
e|-------------------------|-------------------------|
B|-9-----9-----------------|-5-----5-----------------|
G|-9-----9-----9-----9-----|-6-----6-----5----5------| play 2x
D|-9-----9-----9-----9-----|-6-----6-----6----6------|
A|-7-----7-----6-----6-----|-4-----4-----3----3------|
E|-------------------------|-------------------------|
 |
 | Lead (with amp tremelo)
e|-------------------------|-------------------------|
B|----9--------------------|----5--------------------|
G|-------------------------|-------------------------| play 2x
D|-/9----------------------|-/6----------------------|
A|-------------------------|-------------------------|
E|-------------------------|-------------------------|
 1. "I'm      your        disappearing    one"
 2. "Vanish         when the  curtains   drawn,   but I"


   A         Bb_dim        Caug      Dbm           C         Db   D      E
e|-----------------------|----------------------|---------------------|------------|
B|-----------------------|----------------------|---------------------|------------|
G|-6---------6-----------|--9--------9----------|-5---------6----7----|-9----------|
D|-7---------8-----------|-10--------11---------|-5---------6----7----|-9----------|
A|-7---------7-----------|-11--------11---------|-3---------4----5----|-7----------|
E|-5---------6-----------|-8---------9----------|---------------------|------------|
 |
 | Lead
e|-----------------------|----------------------|---------------------|------------|
B|--------------5--------|----7------5\---2-----|----1------2----3----|-5----------|
G|----6------------------|----------------------|---------------------|------------|
D|-----------/4----------|-/6--------6\---2-----|-/2--------2----4----|-6----------|
A|-/7--------------------|----------------------|---------------------|------------|
E|-----------------------|----------------------|---------------------|------------|
"will come again, and you will let me in   And youíll see I never disappear for long"


Lead (with Verse Rhythm Riff)
   Ab      Ab/C        Dbm      B        Bb7       Amaj7 A7   Ab   Gb   Db
e|------------------|------------------|--------------------|-------------------|------|
B|---------9--------|------------------|--------------------|-------------------|------|
G|-8----------------|-----------9-8----|-7----------6---8---|----------------9--|-8~---|
D|-------------6----|-8----------------|----------8---------|-10---8b9r8--6-----|------|
A|------------------|------------------|--------------------|-------------------|------|
E|------------------|------------------|--------------------|-------------------|------|


Play Verse 2 similar to verse 1 Riff

Lyrics:

"Into your room, I stumble now,
too tired to cower and its too late to draw you out
There you lie like a painting of Christ
bleeding on the heads of the ones that nailed You down."

Play Prechorus

Play Chorus 2x, but add a resolution chord before the repeat

Last Bar:
    E      Eb
e|----------------|
B|--5------4------|
G|---------3------|
D|--6------5------| do repeat
A|----------------|
E|----------------|

On Chorus repeat, Overdub Guitar plays:
e|-----12\7-----9\-0-|-(0)-----------------|-----12\7-----9\-0-|-(0)---------------|
B|-------------------|-------10\9~---8/9~--|-------------------|-------10\9~---/14-|
G|-------------------|---------------------|-------------------|-------------------|
D|-------------------|---------------------|-------------------|-------------------|
A|-------------------|---------------------|-------------------|-------------------|
E|-------------------|---------------------|-------------------|-------------------|

e|----------------------|--------------------|--------------------|--------------------|
B|-(14~)----------------|--------------14\13-|-(13~)--------------|----12/15~---14-13~-|
G|----------------------|------14\13---------|------14\12~---11\9-|-(9)----------------|
D|------10-11~---12/13~-|-(13~)--------------|--------------------|--------------------|
A|----------------------|--------------------|--------------------|--------------------|
E|----------------------|--------------------|--------------------|--------------------|


Ending
  C             Db    D    E        Eaug5*      % play 2x             Final chord
e|-----------------------|-----------------|   ------------------|   -----------------|
B|-(13~)-----------------|-----------------|   ----10p9~---------|   -----------------|
G|------14\12~~------11\-|-9~--------------|   -9----------------|   -9---------------|
D|-----------------------|------------10p9-|   -9-----------10p9-|   -9---------------|
A|-----------------------|------------7----|   -7-----------7----|   -7---------------|
E|-----------------------|-----------------|   ------------------|   -----------------|


* both parts are written starting here

key
| /  slide up
| \  slide down
| h  hammer-on
| p  pull-off
| b  bend
| r  release bend
| ~  vibrato
| x  Mute note
|()  held note from previous bar





Comments


Popular Chris Cornell tabs & chords
Billie Jean Chords
Finally Forever Chords
Flutter Girl Chords
Preaching The End Of The World Chords
Scar On The Sky 1 Chords
You Know My Name 2 Chords
Boot Camp Tabs
You Know My Name Intro 2 Tabs
Doesnt Remind Me Ukulele
Scar On The Sky Ukulele


Song lyrics



↑ Back to top | Tablatures and chords are parodies/interpretations of the original songs. You may use it for private study, scholarship, research or language learning purposes only
© 2014 AZChords.com Contact us | Privacy policy | DMCA | Add/correct tabs | Request tabs | Top 50 tabs