>
 >
Disappearing Act

Disappearing Act Guitar Tabs

Chris Cornell - Disappearing Act chords, tabs, tablatures, lyrics

Guitar lessons | Add/correct | Request | Top 50 tabs Artists:  A B C D E F G H I J K L M N O P Q R S T U V W X Y Z 0-9

Disappearing Act Guitar Tabs – Chris Cornell

CD, Sheet music, Poster

Do you like Disappearing Act? Share with your friends now
Tabs
-------------------------------------------------------------------------------
-------------------------------------------------------------------------------

Just a quick sketch, but hope you can use it. Feel free to correct stuff.

Tuning: EADGBe
Capo: 3rd fret (chords relative to capo)


Intro:

|Bm	|Bm/e	|Bm	|Bm/e	|Bm	|Bm/e	|


Verse:

  D    /f#  D C9/e  C9   G/b    G    D(2) Dsus4D(2)  
e|---2-----------------------------------2-----------------------------------|
B|-----3---------3-----3-----3-----3-------3---------------------------------|
G|-----------------0-----0-----0-----0---------------------------------------|
D|0-----0h4-0-2-----------------------------5p4------------------------------|
A|------------------3-----2-----------5--------5-0---------------------------|
E|------------------------------3--------------------------------------------|

  D    /f#  D C9    G    D/f#  Em7  A7sus4*  A7*
e|---2--------------------------------0-----0--------------------------------|
B|-----3---------3-----3-----3-----3--3-----2--------------------------------|
G|-----------------0-----0-----2-----00-----0--------------------------------|
D|0-----0h4-0-------------------------2-----2--------------------------------|
A|------------3-----------------------0-----0--------------------------------|
E|------------------3-----2-----0--------------------------------------------|

* Stay on the A7sus4 and the A7 longer just before the chorus.


Chorus:

|Bm	F#7/a#	|A	E7/g#	|
|Bm	A	|E7/g#	E	|
|Bm	F#7/a#	|A	E7/g#	|
|G6		|F#7aug	F#7	|
|E		|E		|
After 2nd and 4th chorus: 
|G		|A#		|


Between 3rd and 4th chorus:
 
 G(2)  G/f#    Em        Fadd9  C/e   D(2) Dsus4D(2)
e|---0-----0------0-----------------------2----------------------------------|
B|-----0-----0------0-----------------------3--------------------------------|
G|----------------------------5-----5----------------------------------------|
D|5-----4------2----------------5-----5------5p4-----------------------------|
A|-------------------4-5-7-8-----7-----5--------5-0--------------------------|
E|---------------------------------------------------------------------------|

 G(2)  G/f#    Em          C    G/b    |A7sus4	A7	|A7sus4	A7	|
e|---0-----0------0----------------------------------------------------------|
B|-----0-----0------0---------1-----0----------------------------------------|
G|------------------------------0-----0--------------------------------------|
D|5-----4------2-------------------------------------------------------------|
A|-------------------4-5-7-3-----2-------------------------------------------|
E|---------------------------------------------------------------------------|


Chords:

  Bm   Bm/e     D      D/f#    C9/e     C9     G/b      G      D(2)   Dsus4		
e|2-----2-------2-------2-------0-------0-------3-------3-------2-------2----|
B|3-----3-------3-------3-------3-------3-------3-------3-------3-------3----|
G|4-----4-------2-------2-------0-------0-------0-------0-------2-------2----|
D|4-----4-------0-------4-------2-------2-------0-------0-------4-------5----|
A|2-----2-------------------------------3-------2-------2-------5-------5----|
E|------0-----------------------------------------------3--------------------|

 D/f#  Em7    A7sus4    A7    F#7/a#    A     E7/g#     E
e|0-----0-------0-------0-------0-------0-------0-------0--------------------|
B|3-----3-------3-------2-------2-------2-------5-------0--------------------|
G|2-----0-------0-------0-------3-------2-------4-------1--------------------|
D|0-----2-------2-------2-------4-------2-------0-------2--------------------|
A|x-----2-------0-------0-------1-------0-------x-------2--------------------|
E|2-----0---------------------------------------4-------0--------------------|

  G6  F#7aug   F#7      A#     G(2)    G/f#     Em    Fadd9    C/e      C
e|0-----0-------2-------1-------0-------0-------0-------5---------------0----|
B|3-----3-------2-------3-------0-------0-------0-------6-------5-------1----|
G|0-----4-------3-------3-------0-------0-------0-------5-------5-------0----|
D|0-----4-------2-------3-------5-------4-------2-------5-------5-------2----|
A|2-----x-------4-------1-------------------------------8-------7-------3----|
E|3-----2-------2------------------------------------------------------------|


Disappearing act:

Intro
Verse 1
Verse 2
Chorus 1
Intro
Verse 3
Verse 4
Chorus 2
Chorus 3 (solo)
Between 3rd and 4th chorus
Chorus 4
Intro


| /  slide up
| \  slide down
| h  hammer-on
| p  pull-off
| ~  vibrato
| +  harmonic
| x  Mute note
===============================================================================





Comments


Popular Chris Cornell tabs & chords
Ghosts 1 Chords
Preaching The End Of The World 1 Chords
Thank You 1 Chords
You Know My Name 6 Chords
Mission Tabs
Seasons Tabs
Steel Rain Tabs
Wave Goodbye Tabs
Get Up Ukulele
Killing Birds Ukulele


Song lyrics



↑ Back to top | Tablatures and chords are parodies/interpretations of the original songs. You may use it for private study, scholarship, research or language learning purposes only
© 2014 AZChords.com Contact us | Privacy policy | DMCA | Add/correct tabs | Request tabs | Top 50 tabs