>
 >
Cant Chnage Me

Cant Chnage Me Guitar Tabs

Chris Cornell - Cant Chnage Me chords, tabs, tablatures, lyrics

Guitar lessons | Add/correct | Request | Top 50 tabs Artists:  A B C D E F G H I J K L M N O P Q R S T U V W X Y Z 0-9

Cant Chnage Me Guitar Tabs – Chris Cornell

CD, Sheet music, Poster

Do you like Cant Chnage Me? Share with your friends now
Tabs
7/??/99

S1: sorry it took so long for me to get this tab out, its got some
weird solos, and i had to make sure they were right., here is the new
chris cornell song - can't change me
Normal Tuning (EADGBe)

INTRO (1st guitar)
e|------------------------------------|
b|------------------------------------|
g|------------------------------------|
d|------------------------------------|
a|----5--5--5--5--5--5--5--5--5--5--5-|
e|--3--3--3--3--3--3--3--3--3--3--3---|
    ~~~~PALM MUTE~~~~

(2nd guitar)
e|---------------------------------------------------------|
b|---------------------------------------------------------|
g|---------------------------------------------------------|
d|--5---7---8-/10---8---7---8---/12--10---8---7------------|
a|---------------------------------------------------------|
e|---------------------------------------------------------|
                     THEN,
e|----------------------------------------------------------|
b|--8--10--11/-13--11--10--11---15---13--11--10-------------|
g|--x---x---x--x----x---x---x----x----x---x---x-------------|
d|--5---7---8-/10---8---7---8---/12--10---8---7-------------|
a|----------------------------------------------------------|
e|----------------------------------------------------------|

Verse                                                     x2
       G              A              D             C           Bm
e|---------------------------------------------------|     |--2--|
b|------------------------------5----5--------3----3-|     |--3--|
g|--4----4--------6----6--------7----7--------5----5-|     |--4--|
d|--5----5--------7----7--------7----7--------5----5-|THEN:|--4--|
a|--5----5--------7----7--------5----5--------3----3-|     |--2--|
e|--3----3--------5----5-----------------------------|     |-----|

CHORUS
e|-------------------------------|
b|-------------------------------|
g|---------------5/7--7--7-------|
d|--5--5---5--5--5/7--7--7-------|
a|--5--5---5--5--3/5--5--5-------|
e|--3--3---3--3------------------|
"She's going to change the world"

e|------------------------|   |---------------------------|
b|------------------------|   |---------------------------|
g|--------7-----7---------|   |--------7------------------|
d|--------7--7--7---------|   |--------7--7--5------------|
a|--------5--7--5---------|   |--------5--7--5------------|
e|-----------5------------|   |-----------5--3------------|
"But she can't change me"      "No she can't change me"

Solo #1
e|---------------------------------------------------|
b|---------------------------------------------------|
g|-7--7-5-7-8----------------------------------------|
d|-5------------8-7--10-8-7-8-------12-10-8-7--------|
a|----------------------------------10---------------|
e|---------------------------------------------------|

 Verse, 
 Chorus
 THEN:

   Gm    G        A#       x2
e|--3----3------6----6------|
b|--3----3------6----6------|
g|--3----4------7----7------|
d|--5----5------8----8------|
a|--5----5------8----8------|
e|--3----3------6----6------|
"Suddenly I can see everything that is wrong"

e|---------------------------------------------------------|
b|--8--10--11/-13--11--10--11--15---13--11--10--11--13-----|
g|--x---x---x--x----x---x---x---x---x----x---x---x---x-----|
d|--5---7---8-/10---8---7---8--/12--10---8---7---8--10-----|
a|---------------------------------------------------------|
e|---------------------------------------------------------|
     Back to that weird intro riff
                THEN:
e|--------------------------------8----|
b|--------------------------------8----|
g|--------------------------------9----|
d|--------------------------------10---|
a|--------------------------------10---|
e|---3-5-6-8--6-5-6---10-8-6-5--6-8----|

Verse,
Chorus

 Ending Note
     |----3----|
     |----3----|
     |----4----|  ********************
     |----5----|  * SLOW UPSTROKE!!! *
     |----5----|  ********************
     |----3----|





Comments


Popular Chris Cornell tabs & chords
Get Up Chords
Preaching The End Of The World 1 Chords
Thank You 1 Chords
You Know My Name 6 Chords
You Know My Name 6 Chords
Mission 1 Tabs
Pillow Of Your Bones 1 Tabs
Sweet Euphoria Tabs
You Know My Name Intro 1 Tabs
Ghosts Ukulele


Song lyrics



↑ Back to top | Tablatures and chords are parodies/interpretations of the original songs. You may use it for private study, scholarship, research or language learning purposes only
© 2014 AZChords.com Contact us | Privacy policy | DMCA | Add/correct tabs | Request tabs | Top 50 tabs