» » »

Chris Cornell, Boot Camp Tabs (ver.1)

Artists:  A B C D E F G H I J K L M N O P Q R S T U V W X Y Z # 

Boot Camp Tabs (ver.1)

Chris Cornell Tabs
Rating:
0/5 (0 votes)
Boot Camp lessons Tabs too difficult? Try these video lessons and learn fast
                Music/Lyrics: Cornell
Tuning: DADGBE

Intro/Verse:
E|---------0---------||--0----0-----------||-0----0----------|
B|------3----3--1----||--3------3--1------||-3------3--1-----|
G|----2------------2-||o--------------2--o||--------------2--|
D|-0-----------------||o----0------------o||----0------------|
A|-0-----------------||-------------------||-----------------|  
D|-0-----------------||-------------------||-----------------|  


E|---------0----------|--------------------|--------0----------|
B|-1--1------3--1--3--|-4--4---4--3--1--3--|-3---3----3--1-----|
G|-0--0---------------|-3--3---------------|-2---2----------2--|
D|-2------------------|-5------------------|-0-----------------|
A|-3------------------|--------------------|-------------------|
D|--------------------|--------------------|-------------------|


E|-----------------|-----------------|----1---0-1-0-1-0-1-0-1--| 
B|-4--4---4-3-1-3--|-4--4---4-3-1-3--|-3--3---3-3-3-3-3-3-3-3--| 
G|-3--3------------|-1--1------------|-3--3--------------------| 
D|-5---------------|-1---------------|-------------------------| 
A|-----------------|-----------------|-------------------------| 
D|-----------------|-----------------|-------------------------| 
                                      

2nd Guitar for Pre-Verse:
E|----------------------------------------------------------|
B|----------------------------------------------------------|
G|-9b10~~-10r9~-7~-7\5~-5/8~-8\7~-10\8~-8/10~-15/17-17~~~~--|
D|----------------------------------------------------------|
A|----------------------------------------------------------|
D|----------------------------------------------------------|


Chorus:
E|-------0----1----4---------0----1----4----|
B|--1----0----1----4----1----0----1----4----|
G|--0----1----2----5----0----1----2----5----|
D|--2----2----3----6----2----2----3----6----|
A|--3----2----3----6----3----2----3----6----|
D|------------------------------------------|
            

comments powered by Disqus
↑ Back to top | Chris Cornell Tabs for Boot Camp. Lyrics for acoustic guitar and electric guitar. Tablatures and chords are parodies/interpretations of the original songs. You may use it for private study, scholarship, research or language learning purposes only