» » »

Choking Victim, Suicide Tabs (ver.1)

Artists:  A B C D E F G H I J K L M N O P Q R S T U V W X Y Z # 

Suicide Tabs (ver.1)

Choking Victim Tabs
 Rating:
4.3/5 (6 votes)
Suicide lessons Tabs too difficult? Try these video lessons and learn fast
1
                00:03 - 00:08
e----------------|
b----------------|
g----------------|
d--8-8-8-8-8-8---|
a--8-8-8-8-8-8---|
e--6-6-6-6-6-6---|x2

pre verse guitar 1 00:09
e---------------------------------------------------------------|
B---------------------------------------------------------------|
G---------------------------------------------------------------|
D---10-10-10-10-10-10-11-11-11-11-10-8-6-6-6-6-6-6-7-7-7-7-7-7--|
A---10-10-10-10-10-10-11-11-11-11-10-8-6-6-6-6-6-6-7-7-7-7-7-7--|
E---8--8--8--8--8--8--9--9--9--9--8--6-4-4-4-4-4-4-5-5-5-5-5-5--|x2
pre verse guitar 2 00:09
e----------------------------------------|
b----------------------------------------|
g---13-13-12-12-13-13-15-15--------------|
d----x--x--x--x--x--x--x--x--------------|
a---11-11-10-10-11-11-13-13--------------|
e----------------------------------------|x2

guiter 1 2nd half 00:20
e------------------------------------------------------------|
b------------------------------------------------------------|
g------------------------------------------------------------|
d--10101010101010111111111111116-6-6-6-6-6-6-8-8-8-8-8-8-8---|
a--10101010101010111111111111116-6-6-6-6-6-6-8-8-8-8-8-8-8---|
e--8-8-8-8-8-8-8-9-9-9-9-9-9-9-4-4-4-4-4-4-4-6-6-6-6-6-6-6---|x2

guitar 2 2nd half 00:20
e----------------------------------------|
b----------------------------------------|
g---13-13-12-12-13-13-15-15--------------|
d----x--x--x--x--x--x--x--x--------------|
a---11-11-10-10-11-11-13-13--------------|
e----------------------------------------|x2

verse 00:29
e--8--x--8--8--9--x-9--9--4-x-4-4--6-x-6-6--|
B--8--x--8--8--9--x-9--9--4-x-4-4--6-x-6-6--|
G--9--x--9--9--10-x-10-10-5-x-5-5--7-x-7-7--|
D--10-x-10-10--11-x-11-11-6-x-6-6--8-x-8-8--|x4
a-------------------------------------------|
e-------------------------------------------|

pre verse guitar 1,2nd time rythem changes 00:49 change at 00:59
e------------------------------------------------------------|
b------------------------------------------------------------|
g------------------------------------------------------------|
d--10101010101010111111111111116-6-6-6-6-6-6-8-8-8-8-8-8-8---|
a--10101010101010111111111111116-6-6-6-6-6-6-8-8-8-8-8-8-8---|
e--8-8-8-8-8-8-8-9-9-9-9-9-9-9-4-4-4-4-4-4-4-6-6-6-6-6-6-6---|x4

pre verse guitar 2 00:49
e----------------------------------------|
b----------------------------------------|
g---13-13-12-12-13-13-15-15--------------|
d----x--x--x--x--x--x--x--x--------------|
a---11-11-10-10-11-11-13-13--------------|
e----------------------------------------|x2

pre verse guitar 2 2nd half 00:59
e----------------------------------------------------------|
b----------------------------------------------------------|
g---13-13-13-12-12-13-13-15-15-14-16-16-17-17-16-19-21-21--|
d----x--x--x--x--x--x--x--x--x--x--x-x---x--x--x--x--x--x--|
a---11-11-10-10-11-11-13-13-12-14-14-15-15-14-17-17-19-19--|
e----------------------------------------------------------|

verse 01:09
e--8--x--8--8--9--x-9--9--4-x-4-4--6-x-6-6--|
B--8=-x--8--8--9--x-9--9--4-x-4-4--6-x-6-6--|
G--9--x--9--9--10-x-10-10-5-x-5-5--7-x-7-7--|
D--10-x-10-10--11-x-11-11-6-x-6-6--8-x-8-8--|x4

post verse guitar 1 01:30
e------------------------------------------------------------|
b------------------------------------------------------------|
g------------------------------------------------------------|
d--10101010101010111111111111116-6-6-6-6-6-6-8-8-8-8-8-8-8---|
a--10101010101010111111111111116-6-6-6-6-6-6-8-8-8-8-8-8-8---|
e--8-8-8-8-8-8-8-9-9-9-9-9-9-9-4-4-4-4-4-4-4-6-6-6-6-6-6-6---|x4

post verse guitar 2 01:30
e----------------------------------------|
b----------------------------------------|
g---13-13-12-12-13-13-15-15--------------|
d----x--x--x--x--x--x--x--x--------------|
a---11-11-10-10-11-11-13-13--------------|
e----------------------------------------|x4
pause 01:49
e------|
b------|
g------|
d-11~~~
a-11~~~
e--9~~~
  01:53
e---------------------------------------------------------|
b---------------------------------------------------------|
g-------------------------------11-11-11-11-11------------|
d-11-11-11-11-11-11-------------11-11-11-11-11--6-6-6-6-6-|
a-11-11-11-11-11-11--------------9--9--9--9--9--6-6-6-6-6-|
e--9--9--9--9--9--9-----------------------------4-4-4-4-4-|

outro 02:00
e------------------------------------------------------------|
b------------------------------------------------------------|
g--------------------------------11-11-11-11-11-9-9-9-9-9----|
d--12-12-12-12-12-11-11-11-11-11-11-11-11-11-11-9-9-9-9-9----|
a--12-12-12-12-12-11-11-11-11-11--9--9--9--9--9-7-7-7-7-7----|
e--10-10-10-10-10--9--9--9--9--9-----------------------------|

02:04
e----------------------------------------------------------|
b----------------------------------------------------------|
g--------------------------------11-11-11-11-11------------|
d--12-12-12-12-12-11-11-11-11-11-11-11-11-11-11-6-6-6-6-6--|
a--12-12-12-12-12-11-11-11-11-11--9--9--9--9--9-6-6-6-6-6--|
e--10-10-10-10-10--9--9--9--9--9----------------4-4-4-4-4--|
              ^^^^^^^^^^^^^^^^^^^^^^^^^^ DO THAT 3 times
after third time 02:30
e------------------------------------------------------------------------|
b------------------------------------------------------------------------|
g---11-11-11-11-11-----------11-11-11-11-11-----------11-11-11-11-11-----|
d---11-11-11-11-11-6-6-6-6-6-11-11-11-11-11-6-6-6-6-6-11-11-11-11-11--6~-|
a---9--9--9--9--9--6-6-6-6-6-9--9--9--9--9--6-6-6-6-6-9--9--9--9--9---6~-|
e------------------4-4-4-4-4----------------4-4-4-4-4-----------------4~-|

 02:38
e---------------------------------------------------------------|
B---------------------------------------------------------------|
G---------------------------------------------------------------|
D---10-10-10-10-10-10-11-11-11-11-10-8-6-6-6-6-6-6-7-7-7-7-7-7--|
A---10-10-10-10-10-10-11-11-11-11-10-8-6-6-6-6-6-6-7-7-7-7-7-7--|
E---8--8--8--8--8--8--9--9--9--9--8--6-4-4-4-4-4-4-5-5-5-5-5-5--|x2

 02:49
e------------------------------------------------------------|
b------------------------------------------------------------|
g------------------------------------------------------------|
d--10101010101010111111111111116-6-6-6-6-6-6-8-8-8-8-8-8-8---|
a--10101010101010111111111111116-6-6-6-6-6-6-8-8-8-8-8-8-8---|
e--8-8-8-8-8-8-8-9-9-9-9-9-9-9-4-4-4-4-4-4-4-6-6-6-6-6-6-6---|x4
 02:49
e----------------------------------------|
b----------------------------------------|
g---13-13-12-12-13-13-15-15--------------|
d----x--x--x--x--x--x--x--x--------------|
a---11-11-10-10-11-11-13-13--------------|
e----------------------------------------|

this is my first tab its no right but i rock it with my cock danglin so have fun
            
Submit corrections

comments powered by Disqus
↑ Back to top | Choking Victim Tabs for Suicide. Lyrics for acoustic guitar and electric guitar. 1 Tablatures and chords are parodies/interpretations of the original songs. You may use it for private study, scholarship, research or language learning purposes only