» » »

Choking Victim, Praise To The Sinners Tabs (ver.1)

Artists:  A B C D E F G H I J K L M N O P Q R S T U V W X Y Z # 

Praise To The Sinners Tabs (ver.1)

Choking Victim Tabs
Rating:
0/5 (0 votes)
Praise To The Sinners lessons Tabs too difficult? Try these video lessons and learn fast
                Band - Choking Victim
Song - Praise To The Sinners
Album - No Gods/No Managers


Tuning: Eb (Eb Ab Db Gb Bb Eb)

.=Palm Mute
/=Slide

Awesome Track Which leads Into The Outro Track 'Living The Laws'

The Classical Lead Guitar Plays In Ab Harmonic Minor Scale, I Shall Update This 
Tab If I Complete The Solo.

Classical Guitar Tuned To Eb

(The Strumming Is Easy, But Very Hard To Tab)
Intro
|-0-00-0-0-0--0-00-0-0-0---|
|-0-00-0-0-0--0-00-0-0-0---|
|-1-11-1-1-1--1-11-1-1-1---|
|-2-22-2-2-2--2-22-2-2-2---|
|-2-22-2-2-2--2-22-2-2-2---|
|-0-00-0-0-0--0-00-0-0-0---|

Verse
|-0-00-0-0-0--0-00-0-0-0--00-0-0-00-0-00-0-00-0-0-0----|
|-0-00-0-0-0--0-00-0-0-0--00-0-0-00-0-00-0-00-0-0-0----|
|-1-11-1-1-1--1-11-1-1-1--11-1/2-22-2-22-2-22-2-2-2----|
|-2-22-2-2-2--2-22-2-2-2--22-2/3-33-3-33-3-33-3-3-3----|
|-2-22-2-2-2--2-22-2-2-2--22-2/3-33-3-33-3-33-3-3-3----|
|-0-00-0-0-0--0-00-0-0-0--00-0-0-00-0-00-0-00-0-0-0----|

Distorted Electric Guitar (Rhythm) Tuned To Eb
|------------------------------------|
|------------------------------------|
|------------------------------------|
|-2-222-2-222-2-22-2-222-2-222-2-22--|
|-2-222-2-222-2-22-2-222-2-222-2-22--|
|-0-000-0-000-0-00-0-000-0-000-0-00--|
    ...   ...   ..   ...   ...   ..
|-------------------------------------|
|-------------------------------------|
|-------------------------------------|
|-3-333-3-333-3-33-3-333-3-33-3/5\3---|
|-3-333-3-333-3-33-3-333-3-33-3/5\3---|
|-1-111-1-111-1-11-1-111-1-11-1/3\1---|
    ...   ...   ..   ...   ..

Distorted Electric Guitar (Lead) Tuned To Eb
|--------------------------------------------------------------|
|--------------------------------------------------------------|
|-9-99-9-99-10--9-99-9-99-9--10-1010-10-1010-10--1010-14-12-10-|
|-x-xx-x-xx-x---x-xx-x-xx-x--x--x-x--x--x-x--x---x-x--x--x--x--|
|-7-77-7-77-8---7-77-7-77-7--8--8-8--8--8-8--8---8-8--12-10-8--|
|--------------------------------------------------------------|

|--------------------------------------------------------------|---|
|--------------------------------------------------------------|---|
|-9-99-9-99-10--9-99-9-99-9--10-1010-10-1010-10--1010-14-12-10-|-9-|
|-x-xx-x-xx-x---x-xx-x-xx-x--x--x-x--x--x-x--x---x-x--x--x--x--|-x-|
|-7-77-7-77-8---7-77-7-77-7--8--8-8--8--8-8--8---8-8--12-10-8--|-7-|
|--------------------------------------------------------------|---|


Structure
Classical Guitar       Intro x2 1/2
Classical Guitar       Verse x4 
Electric Rhythm Guitar Verse x4 
Electric Lead Guitar   Outro x1

!LIVING THE LAWS & PRAISE THE SINNERS!

Rate & Comment Please!
            
Submit corrections

comments powered by Disqus
↑ Back to top | Choking Victim Tabs for Praise To The Sinners. Lyrics for acoustic guitar and electric guitar. Tablatures and chords are parodies/interpretations of the original songs. You may use it for private study, scholarship, research or language learning purposes only