» » »

Hate Your State Tabs (ver.1)

Artists:  A B C D E F G H I J K L M N O P Q R S T U V W X Y Z # 

Hate Your State Tabs (ver.1)

Choking Victim
Rating:
4/5 (1 vote)

Hard to play? Try these video lessons and learn fast.
                -------------------------------------------------------------------------------
                         HATE YER STATE - Choking Victim
-------------------------------------------------------------------------------


Intro
e|---------------------------------------------------------------------------|
B|---------------------------------------------------------------------------|
G|---------------------------------------------------------------------------|
D|--------------88-6----------------55-3-------------------------------------|
A|---66666666-------------33333333-------------------------------------------|
E|---------------------------------------------------------------------------|
   pm........           pm........

Verse (ska)
e|---------------------------------------------------------------------------|
B|--8----5-------------------------------------------------------------------|
G|--8----5-------------------------------------------------------------------|
D|--8----5-------------------------------------------------------------------|
A|--6----3-------------------------------------------------------------------|
E|---------------------------------------------------------------------------|

Chorus (octaves)
e|---------------------------------------------------------------------------|
B|---------------------------------------------------------------------------|
G|--8-----5------------------------------------------------------------------|
D|--x-----x------------------------------------------------------------------|
A|--6-----3------------------------------------------------------------------|
E|---------------------------------------------------------------------------|
  hate yer sttaaaatteee...

Solo towards the end (all in octaves again)
e|---------------------------------------------------------------------------|
B|---------------------------------------------------------------------------|
G|---8-10-5--------------11-12-14-16-14-12-11-12-14-16---11---12---14--------|
D|---x-x--x--------------x---x--x--x--x--x--x--x--x--x----x----x----x--------|
A|---6-8--3---(4x)then---9--10-12-14-12-10--9-10-12-14----9---10---12--------|
E|---------------------------------------------------------------------------|

e|---------------------------------------------------------------------------|
B|---------------------------------------------------------------------------|
G|--5--11---12--14----5------------------------------------------------------|
D|--x---x----x---x----x------------------------------------------------------|
A|--3---9---10--12----3------------------------------------------------------|
E|---------------------------------------------------------------------------|

Outro
e|---------------------------------------------------------------------|
B|---------------------------------------------------------------------|
G|---------------------------------------------------------------------|
D|-5--7--9-------------------------------------------------------------|
A|-5--7--9-------------------------------------------------------------|
E|-3--5--7-------------------------------------------------------------|

Order of Song:
Intro
Verse
Chorus
Verse
Chorus
Intro
Verse
Chorus
Solo
Chorus
Intro
Outro

didnt waste my time.
===============================================================================
            
Hard to play? Try these video lessons and learn fast. | Correct




comments powered by Disqus
↑ Back to top | Tablatures and chords are parodies/interpretations of the original songs. You may use it for private study, scholarship, research or language learning purposes only