» » »

Fuck America Bass tabs (ver.1)

Artists:  A B C D E F G H I J K L M N O P Q R S T U V W X Y Z # 

Fuck America Bass tabs (ver.1)

Choking Victim
Rating:
0/5 (0 votes)

Hard to play? Try these video lessons and learn fast.
                Choking Victim
No Gods No Managers

G--------------------------------------------------------------------------|
D--------------------------------------------------------------------------|
A--------------------0-0-3-0-5-0-3-0----------------------0-0-3-0-5-0-3-0--|
E-0-0-3-0-0-0-0------------------------0-0-3-0-0-0-0-----------------------|

G--------------------------------------------------------------------------|
D--------------------------------------------------------------------------|
A--------------------0-0-3-0-5-0-3-0----------------------0-0-3-0-5-0-3-0--|
E-0-0-3-0-0-0-0------------------------0-0-3-0-0-0-0-----------------------|

G--------------------------------------------------------------------------|
D--------------------------------------------------------------------------|
A--------------------0-0-3-0-5-0-3-0----------------------0-0-3-0-5-0-3-0--|
E-0-0-3-0-0-0-0------------------------0-0-3-0-0-0-0-----------------------|
            
Hard to play? Try these video lessons and learn fast. | Correct




comments powered by Disqus
↑ Back to top | Tablatures and chords are parodies/interpretations of the original songs. You may use it for private study, scholarship, research or language learning purposes only