» » »

Choking Victim, Five Finger Discount Bass tabs (ver.1)

Artists:  A B C D E F G H I J K L M N O P Q R S T U V W X Y Z # 

Five Finger Discount Bass tabs (ver.1)

Choking Victim Tabs
 Rating:
3.8/5 (5 votes)
Five Finger Discount lessons Tabs too difficult? Try these video lessons and learn fast
1
                -----------------------------------------------------------------------------
-----------------------------------------------------------------------------


Tuning: E A D G (Standard)

G|-----------------------------------------|
D|-----------3-6--8-6----------------------|10x
A|-----3-6-4---------8-6-------------------|
E|---4-------------------9-8-6-------------|

       Chorus
G|----------------------|
D|----------------------|
A|------3(8x)----4(8x)--|
E|---4(8x)----1(8x)-----|

          Verse
G|-----------------------------------------|
D|-----------3-6--8-6----------------------|4x
A|-----3-6-4---------8-6-------------------|
E|---4-------------------9-8-6-------------|

       Chorus
G|----------------------|
D|----------------------| 4x
A|------3(8x)----4(8x)--|
E|---4(8x)----1(8x)-----|

G|-----------------------------------------|
D|-----------3-6--8-6----------------------|3x
A|-----3-6-4---------8-6-------------------|
E|---4-------------------9-8-6-------------|

G|-----------------|
D|-----------3-6---|
A|-----3-6-4-------|
E|---4-------------|

G|-----------------------------------------|
D|-----------3-6--8-6----------------------|4x
A|-----3-6-4---------8-6-------------------|
E|---4-------------------9-8-6-------------|

       Chorus
G|----------------------|
D|----------------------| 4x
A|-------3(8x)----4(8x)-|
E|---4(8x)-----1(8)-----|

G|----------------------|
D|----------------------| 4x
A|-------3(8x)----4(8x)-|
E|---4(8x)-----1(8)-----|

            Outro
G|-------------------------------|
D|-------------------------------|
A|-------3(8x)----4--3--1--0-----|
E|---4(8x)-----1(8)-----------4--|
            
Submit corrections

comments powered by Disqus
↑ Back to top | Choking Victim Bass for Five Finger Discount. Lyrics for acoustic guitar and electric guitar. 1 Tablatures and chords are parodies/interpretations of the original songs. You may use it for private study, scholarship, research or language learning purposes only