» » »

Five Finger Discount Tabs (ver.1)

Artists:  A B C D E F G H I J K L M N O P Q R S T U V W X Y Z # 

Five Finger Discount Tabs (ver.1)

Choking Victim
Rating:
4/5 (2 votes)

Tabs too difficult? Try these video lessons and learn fast.
                [INTRO]
e|-4~----4---4---6-6-6-6--------|
B|-4~----4---6---6-6-8-8--------|
G|-5~----5---6---7-7-8-8--------|
D|-6~----6---6---8-8-8-8--------|
A|-6~----6---4---8-8-6-6--------|
E|-4~----4-------6-6------------|


[VERSE]
(ska strumming):
e|-x4x4x4x4x6x6x6x6--------------|
B|-x4x4x6x6x6x6x8x8--------------|
G|-x5x5x6x6x7x7x8x8--------------|
D|-x6x6x6x6x8x8x8x8--------------|
A|-x6x6x4x4x8x8x6x6--------------|
E|-x4x4----x6x6------------------|

[CHORUS]
e|----------------------------------------------------------------|
B|----------------------------------------------------------------|
G|---------5~--------------6-6-6-6-6-6-6-6------------------------|
D|-6~------5~------3~------6-6-6-6-6-6-6-6------------------------|
A|-6~------3~------3~------4-4-4-4-4-4-4-4------------------------|
E|-4~--------------1~---------------------------------------------|

[BREAKDOWN]
e|-x4x4x4x4x6x6x6x6--------------|
B|-x4x4x6x6x6x6x8x8--------------|
G|-x5x5x6x6x7x7x8x8--------------|
D|-x6x6x6x6x8x8x8x8--------------| Repeat x3
A|-x6x6x4x4x8x8x6x6--------------|
E|-x4x4----x6x6------------------|

e|-x4x4x4x4x6-------------------------|
B|-x4x4x6x6x6--(Rest)-----------------|
G|-x5x5x6x6x7-------------------------|
D|-x6x6x6x6x8-“Five finger discount!”-| Fourth time
A|-x6x6x4x4x8-------------------------|
E|-x4x4----x6-------------------------|

Distorted:
Guitar 1:
e|-----------------------------------------|
B|-----------------------------------------|
G|-----xx6-----xx8-------------------------|
D|-xx6-xx6-xx8-xx8--Play 4 times-----------|
A|-xx6-xx4-xx8-xx6-------------------------|
E|-xx4-----xx6-----------------------------|

Guitar 2 (after playing above riff twice):
e|----------------------------------------------------------------|
B|----------------------------------------------------------------|
G|-13-13-13-13-13-13-13-12-13-13-15-15-17-18-20-20----------------|
D|--x--x--x--x--x--x--x--x--x--x--x--x--x--x--x--x----------------|
A|-11-11-11-11-11-11-11-10-11-11-13-13-15-16-18-18----------------|
E|----------------------------------------------------------------|
            
Tabs too difficult? Try these video lessons and learn fast.




comments powered by Disqus
↑ Back to top | Tablatures and chords are parodies/interpretations of the original songs. You may use it for private study, scholarship, research or language learning purposes only