» » »

Death Song Bass tabs (ver.1)

Artists:  A B C D E F G H I J K L M N O P Q R S T U V W X Y Z # 

Death Song Bass tabs (ver.1)

Choking Victim
Rating:
0/5 (0 votes)

Tabs too difficult? Try these video lessons and learn fast.
                tuneing is G,D,A,E
song is so hard to hear let me know if i need changes

intro
|------------------------------------------------------------|
|-----------------------------------------------11-12-14-12--|
|-------------------------------10-10-10-10--12--------------|
|--0~~~0~~~0~~~----------------------------------------------|

verse
|--------------------------------------------------------------|
|--------------------------------------------------11-12-14-12-|
|-7-7-7-7-7-7---------6-9----------10-10-10-10--12-------------|
|-------------8-8-8-7------3x's--------------------------------|

chorus    the || in the middle is rest
|----------------------------------------------------------------------------|
|----------------------------------------------------------------------------|
|------------------3-3-3------------------------3-3-3------------------3-3-3-|
|-3-3-3-5-5-5-0-0-0-------3-3-3-5-5-5-||-0-0-0-------3-3-3-5-5-5-0-0-0-------|

note X is hand mute and than rest
|---------------------------------------------------------------|
|---------------------------------------------------------------|
|--------------------------3-3-3--------------------------------|
|-3-3-3-5-5-5-XREST-0-0-0---------------------------------------|

bridge
|----------------------------------------------------------------------------|
|----------------------------------------------------------------------------|
|-6-7-7-6-7-7-6-7-7-10-12-10----------------------6-7-7-6-7-7-6-7-7-10-12-10-|
|----------------------------8-8-8-8-8-8-7-7-7-7-7-7-------------------------|

|----------------------------------------------------------------------------|
|----------------------------------------------------------------------------|
|------------------------6-7-7-6-7-7-6-7-7-10-12-10----------------6-7-9-7-6-|
|-8-8-8-8-8-8-7-7-7-7-7-7----------------------------8-8-8-8-8-7-7-----------|

|------------------------------------------------------|
|------------------------------------------------------|
|-6-7-7-6-7-7-6-7-7-9-11-9-----------------------------|
|----------------------------8-8-8-8-8-8-7-7-7-7-7-----|
            
Tabs too difficult? Try these video lessons and learn fast.




comments powered by Disqus
↑ Back to top | Tablatures and chords are parodies/interpretations of the original songs. You may use it for private study, scholarship, research or language learning purposes only