» » »

Born To Die Bass tabs (ver.2)

Artists:  A B C D E F G H I J K L M N O P Q R S T U V W X Y Z # 

Born To Die Bass tabs (ver.2)

Choking Victim
Rating:
4/5 (1 vote)

Hard to play? Try these video lessons and learn fast.
                -------------------------------------------------------------------------------
-------------------------------------------------------------------------------


Tuning: standard
     Intro (come in after guitar)
G|--------------------------------------------|
D|--------------------------------------------|
A|---------5-555555-7-777777-1414141414141414-|
E|-5-555555-----------------------------------|
                             (^^^ those are fourteen's (14))

    Intro part 2
G|------------------------------------|
D|------------------------------------|
A|---------555555555-77777777---------|
E|-55555555------------------77777777-|

    Verse
G|----------|----------|----------|-----------|
D|----------|------754-|-------7--|-----------|
A|------754-|-55-55----|-77-75--5-|-55-54-542-|
E|-55-55----|----------|------7---|-----------|

    Chorus part 1
G|------------------------------------|
D|------------------------------------|
A|---------77777777-555555-4-55442244-|
E|-55555555---------------------------|

   Chorus part 2
G|--------------------------------------|
D|-------------------------9--11-121112-|
A|---------77777777-999999--9-----------|
E|-55555555-----------------------------|
                              (^^^ elevens and twelves)

  The intro is plated again in the song somewhere toward the end. Listen to it and you
can figure it out easily. You can use this one for the Leftover Crack version, but the
chorus is a but different fot that one, but you can't tell too much.
            
Hard to play? Try these video lessons and learn fast. | Correct




comments powered by Disqus
↑ Back to top | Tablatures and chords are parodies/interpretations of the original songs. You may use it for private study, scholarship, research or language learning purposes only