» » »

Choking Victim, Born To Die Tabs (ver.1)

Artists:  A B C D E F G H I J K L M N O P Q R S T U V W X Y Z # 

Born To Die Tabs (ver.1)

Choking Victim Tabs
 Rating:
4.4/5 (7 votes)
Born To Die lessons Tabs too difficult? Try these video lessons and learn fast
                Choking Victim

Order:
Intro
Solo Part 1
Verse
Chorus
Verse
Chorus
Solo Part 1
Solo Part 2
Chorus
Intro
Chorus

Intro:

        Clean part                 Distortion

e|----5----5----7----7----------------------------------------------|
B|----5----7----9----7----------------------------------------------|
G|----6----7----9----7--------------7----9----7---------------------|
D|----7----7----9----7---------7----7----9----7---------------------|
A|----7----5----7----5---------7----5----7----5---------------------|
E|----5------------------------5------------------------------------|

Ska part:   Mute downstokes.

e|----x----5----x----5----x----6----x----5--------------------------|
B|----x----5----x----7----x----9----x----7--------------------------|
G|----x----6----x----7----x----9----x----7--------------------------|
D|----x----7----x----7----x----9----x----7--------------------------|
A|------------------------------------------------------------------|
E|------------------------------------------------------------------|

Solo Part A:

e|------------------------------------------------------------------|
B|------------------------------------------------------------------|
G|----6-6-6-7-6----6-6-6-7-6----6-6-6-7-6----6-6-6-7-9--------------|
D|------------------------------------------------------------------|
A|------------------------------------------------------------------|
E|------------------------------------------------------------------|

e|------------------------------------------------------------------|
B|----6-6-6-7-6----6-6-6-7-6----6-6-6-7-6----6-7-9-6-7--------------|
G|------------------------------------------------------------------|
D|------------------------------------------------------------------|
A|------------------------------------------------------------------|
E|------------------------------------------------------------------|

Solo Part B:

e|------------------------------------------------------------------|
B|------------------------------------------------------------------|
G|----\6-6-6-7-9----6-6-6-7-9----6-6-6-7-9----9b(11)-9-7-9-7--------|
D|------------------------------------------------------------------|
A|------------------------------------------------------------------|
E|------------------------------------------------------------------|

e|------------------------------------------------------------------|
B|------------------------------------------------------------------|
G|----6-6-6-7-9----6-6-6-7-9----6h9-6h9-6h9-6h9-6h9-6h9-6h9-6h9-----|
D|------------------------------------------------------------------|
A|------------------------------------------------------------------|
E|------------------------------------------------------------------|

Chours:
                #
e|---------------------------------------------|
B|---------------------------------------------|
G|---------9----7---------9----11-10-9-7-------|
D|----7----9----7----7----9----11-10-9-7-------|
A|----7----7----5----7----7-----9--8-7-5-------|
E|----5--------------5-------------------------|


e|---------------------------------------------|
B|---------------------------------------------|
G|---------9---x7---------9----11-10-9-7-------|
D|----7----9---x7----7----9----11-10-9-7-------|
A|----7----7---x5----7----7-----9--8-7-5-------|
E|----5--------------5-------------------------|


| \  slide down
| h  hammer-on
| x  Mute note
| #  Mute after every 2 Strokes

-hcoresteik
            
Submit corrections

comments powered by Disqus
↑ Back to top | Choking Victim Tabs for Born To Die. Lyrics for acoustic guitar and electric guitar. Tablatures and chords are parodies/interpretations of the original songs. You may use it for private study, scholarship, research or language learning purposes only