» » »

Choking Victim, Apple Pie And Police State Tabs (ver.1)

Artists:  A B C D E F G H I J K L M N O P Q R S T U V W X Y Z # 

Apple Pie And Police State Tabs (ver.1)

Choking Victim Tabs
 Rating:
4/5 (4 votes)
Apple Pie And Police State lessons Tabs too difficult? Try these video lessons and learn fast
1
                                       Apple Pie & Police State

By Evlsk8er

Stza


                                                W
E||-------|-------|-------|------------------|-------------------|
B||-------|-------|-------|------------------|-------------------|
G||-------|-------|-------|------------------|--8----------------|
D||-------|-------|-------|------------------|--6----------------|
A||-------|-------|-------|------------------|-------------------|
E||-------|-------|-------|------------------|-------------------|


  W                   W
-------------------|-------------------|
-------------------|-------------------|
--L----------------|--L----------------|
--L----------------|--L----------------|
-------------------|-------------------|
-------------------|-------------------|


   pick grind
   X          X  X  X  X  X  X  X  X  X  X  X  X  X  X  X  X  X  X  X  X  X  X
--30---------30-29-29-28-28-27-27-26-26-25-25-24-24-23-23-22-22-21-21-20-20-19-1-|
---------------------------------------------------------------------------------|
---------------------------------------------------------------------------------|
---------------------------------------------------------------------------------|
---------------------------------------------------------------------------------|
---------------------------------------------------------------------------------|


  E  E  E  E  E  E  E  E     E  E  E  E  E  E  E  E
--------------------------|--------------------------|
--------------------------|--------------------------|
--------------8--8--8--8--|--8--8--8--8--8--8--8--8--|
--6--6--6--6--8--8--8--8--|--6--6--6--6--8--8--8--8--|
--6--6--6--6--6--6--6--6--|--------------6--6--6--6--|
--4--4--4--4--------------|--------------------------|


  E  E  E  E  E  E  E  E     E  E  E  E  E  E  E  E
--------------------------|--------------------------|
--------------------------|--------------------------|
--------------8--8--8--8--|--6--6--6--6--8--8--8--8--|
--6--6--6--6--8--8--8--8--|--4--4--4--4--8--8--8--8--|
--6--6--6--6--6--6--6--6--|--------------6--6--6--6--|
--4--4--4--4--------------|--------------------------|


  E  E  E  E  E  E  E  E     E  E  E  E  E  E  E  E
--------------------------|--------------------------|
--------------------------|--------------------------|
--------------8--8--8--8--|--8--8--8--8--8--8--8--8--|
--6--6--6--6--8--8--8--8--|--6--6--6--6--8--8--8--8--|
--6--6--6--6--6--6--6--6--|--------------6--6--6--6--|
--4--4--4--4--------------|--------------------------|


  E  E  E  E  E  E  E  E     E  E  E  E  E  E  E  E     W
--------------------------|--------------------------|-------------------|
--------------------------|--------------------------|-------------------|
--------------8--8--8--8--|--6--6--6--6--8--8--8--8--|--8----------------|
--6--6--6--6--8--8--8--8--|--4--4--4--4--8--8--8--8--|--6----------------|
--6--6--6--6--6--6--6--6--|--------------6--6--6--6--|-------------------|
--4--4--4--4--------------|--------------------------|-------------------|


  W                   W                   H.           E.  T. X
-------------------|-------------------|------------------------|
-------------------|-------------------|------------------------|
--L----------------|--L----------------|--L------------L---L--L-|
--L----------------|--L----------------|--L------------L---L--L-|
-------------------|-------------------|------------------------|
-------------------|-------------------|------------------------|


  W                   W                   W
-------------------|-------------------|-------------------|
-------------------|-------------------|-------------------|
--8----------------|--L----------------|--L----------------|
--6----------------|--L----------------|--L----------------|
-------------------|-------------------|-------------------|
-------------------|-------------------|-------------------|


  H.           E.  T. X    E  E  E  E  E  E  E  E     E  E  E  E  E  E  E  E
------------------------|--------------------------|--------------------------|
------------------------|--------------------------|--------------------------|
--L------------L---L--L-|--------------8--8--8--8--|--8--8--8--8--8--8--8--8--|
--L------------L---L--L-|--6--6--6--6--8--8--8--8--|--6--6--6--6--8--8--8--8--|
------------------------|--6--6--6--6--6--6--6--6--|--------------6--6--6--6--|
------------------------|--4--4--4--4--------------|--------------------------|


  E  E  E  E  E  E  E  E     E  E  E  E  E  E  E  E
--------------------------|--------------------------|
--------------------------|--------------------------|
--------------8--8--8--8--|--6--6--6--6--8--8--8--8--|
--6--6--6--6--8--8--8--8--|--4--4--4--4--8--8--8--8--|
--6--6--6--6--6--6--6--6--|--------------6--6--6--6--|
--4--4--4--4--------------|--------------------------|


  E  E  E  E  E  E  E  E     E  E  E  E  E  E  E  E
--------------------------|--------------------------|
--------------------------|--------------------------|
--------------8--8--8--8--|--8--8--8--8--8--8--8--8--|
--6--6--6--6--8--8--8--8--|--6--6--6--6--8--8--8--8--|
--6--6--6--6--6--6--6--6--|--------------6--6--6--6--|
--4--4--4--4--------------|--------------------------|


  E  E  E  E  E  E  E  E     E  E  E  E  E  E  E  E     W
--------------------------|--------------------------|-------------------|
--------------------------|--------------------------|-------------------|
--------------8--8--8--8--|--6--6--6--6--8--8--8--8--|--8----------------|
--6--6--6--6--8--8--8--8--|--4--4--4--4--8--8--8--8--|--6----------------|
--6--6--6--6--6--6--6--6--|--------------6--6--6--6--|-------------------|
--4--4--4--4--------------|--------------------------|-------------------|


  W                   W                   H.           E.  T. X
-------------------|-------------------|------------------------|
-------------------|-------------------|------------------------|
--L----------------|--L----------------|--L------------L---L--L-|
--L----------------|--L----------------|--L------------L---L--L-|
-------------------|-------------------|------------------------|
-------------------|-------------------|------------------------|


  W                   W                   W
-------------------|-------------------|-------------------|
-------------------|-------------------|-------------------|
--8----------------|--L----------------|--L----------------|
--6----------------|--L----------------|--L----------------|
-------------------|-------------------|-------------------|
-------------------|-------------------|-------------------|


  H.           E.  T. X    Q    E  E  E  E  E  E     Q    E  E  E  E  E  E
------------------------|-------------------------|-------------------------|
------------------------|-------------------------|-------------------------|
--L------------L---L--L-|--8----8--8--8--8--8--8--|--8----8--8--8--8--8--8--|
--L------------L---L--L-|--6----6--6--6--6--6--6--|--6----6--6--6--6--6--6--|
------------------------|-------------------------|-------------------------|
------------------------|-------------------------|-------------------------|


  Q    E  E  E  E  E  E     Q    E  E  E  E  E  E     Q    E  E  E  E  E  E
-------------------------|-------------------------|-------------------------|
-------------------------|-------------------------|-------------------------|
--8----8--8--8--8--8--8--|--8----8--8--8--8--8--8--|--8----8--8--8--8--8--8--|
--6----6--6--6--6--6--6--|--6----6--6--6--6--6--6--|--6----6--6--6--6--6--6--|
-------------------------|-------------------------|-------------------------|
-------------------------|-------------------------|-------------------------|


  Q    E  E  E  E  E  E     Q    E  E  E  E  E  E     Q    E  E  E  E  E  E
-------------------------|-------------------------|-------------------------|
-------------------------|-------------------------|-------------------------|
--8----8--8--8--8--8--8--|--8----8--8--8--8--8--8--|--8----8--8--8--8--8--8--|
--6----6--6--6--6--6--6--|--6----6--6--6--6--6--6--|--6----6--6--6--6--6--6--|
-------------------------|-------------------------|-------------------------|
-------------------------|-------------------------|-------------------------|


  E  E  E  E  E  E  E  E     E  E  E  E  E  E  E  E
--------------------------|--------------------------|
--------------------------|--------------------------|
--------------8--8--8--8--|--8--8--8--8--8--8--8--8--|
--6--6--6--6--8--8--8--8--|--6--6--6--6--8--8--8--8--|
--6--6--6--6--6--6--6--6--|--------------6--6--6--6--|
--4--4--4--4--------------|--------------------------|


  E  E  E  E  E  E  E  E     E  E  E  E  E  E  E  E
--------------------------|--------------------------|
--------------------------|--------------------------|
--------------8--8--8--8--|--6--6--6--6--8--8--8--8--|
--6--6--6--6--8--8--8--8--|--4--4--4--4--8--8--8--8--|
--6--6--6--6--6--6--6--6--|--------------6--6--6--6--|
--4--4--4--4--------------|--------------------------|


  E  E  E  E  E  E  E  E     E  E  E  E  E  E  E  E
--------------------------|--------------------------|
--------------------------|--------------------------|
--------------8--8--8--8--|--8--8--8--8--8--8--8--8--|
--6--6--6--6--8--8--8--8--|--6--6--6--6--8--8--8--8--|
--6--6--6--6--6--6--6--6--|--------------6--6--6--6--|
--4--4--4--4--------------|--------------------------|


  E  E  E  E  E  E  E  E     E  E  E  E  E  E  E  E     W
--------------------------|--------------------------|-------------------|
--------------------------|--------------------------|-------------------|
--------------8--8--8--8--|--6--6--6--6--8--8--8--8--|--8----------------|
--6--6--6--6--8--8--8--8--|--4--4--4--4--8--8--8--8--|--6----------------|
--6--6--6--6--6--6--6--6--|--------------6--6--6--6--|-------------------|
--4--4--4--4--------------|--------------------------|-------------------|


  W                   W                   H.           E.  T. X
-------------------|-------------------|------------------------|
-------------------|-------------------|------------------------|
--L----------------|--L----------------|--L------------L---L--L-|
--L----------------|--L----------------|--L------------L---L--L-|
-------------------|-------------------|------------------------|
-------------------|-------------------|------------------------|


  W                   W                   W
-------------------|-------------------|-------------------|
-------------------|-------------------|-------------------|
--8----------------|--L----------------|--L----------------|
--6----------------|--L----------------|--L----------------|
-------------------|-------------------|-------------------|
-------------------|-------------------|-------------------|


  H.           E.  T. X    Q    E  E  E  E  E  E     Q    E  E  E  E  E  E
------------------------|-------------------------|-------------------------|
------------------------|-------------------------|-------------------------|
--L------------L---L--L-|--8----8--8--8--8--8--8--|--8----8--8--8--8--8--8--|
--L------------L---L--L-|--6----6--6--6--6--6--6--|--6----6--6--6--6--6--6--|
------------------------|-------------------------|-------------------------|
------------------------|-------------------------|-------------------------|


  Q    E  E  E  E  E  E     Q    E  E  E  E  E  E     Q    E  E  E  E  E  E
-------------------------|-------------------------|-------------------------|
-------------------------|-------------------------|-------------------------|
--8----8--8--8--8--8--8--|--8----8--8--8--8--8--8--|--8----8--8--8--8--8--8--|
--6----6--6--6--6--6--6--|--6----6--6--6--6--6--6--|--6----6--6--6--6--6--6--|
-------------------------|-------------------------|-------------------------|
-------------------------|-------------------------|-------------------------|


  Q    E  E  E  E  E  E     Q    E  E  E  E  E  E     Q    E  E  E  E  E  E
-------------------------|-------------------------|-------------------------|
-------------------------|-------------------------|-------------------------|
--8----8--8--8--8--8--8--|--8----8--8--8--8--8--8--|--8----8--8--8--8--8--8--|
--6----6--6--6--6--6--6--|--6----6--6--6--6--6--6--|--6----6--6--6--6--6--6--|
-------------------------|-------------------------|-------------------------|
-------------------------|-------------------------|-------------------------|


  Q    E  E  E  E  E  E      Q     E   E   E   E   E   E
-------------------------|--------------------------------|
-------------------------|--------------------------------|
--8----8--8--8--8--8--8--|--10----10--10--10--10--10--10--|
--6----6--6--6--6--6--6--|---8-----8---8---8---8---8---8--|
-------------------------|--------------------------------|
-------------------------|--------------------------------|


   Q     E   E   E   E   E   E      Q     E   E   E   E   E   E
--------------------------------|--------------------------------|
--------------------------------|--------------------------------|
--12----12--12--12--12--12--12--|--13----13--13--13--13--13--13--|
--10----10--10--10--10--10--10--|--11----11--11--11--11--11--11--|
--------------------------------|--------------------------------|
--------------------------------|--------------------------------|


  Q    E  E  E  E  E  E      Q     E   E   E   E   E   E
-------------------------|--------------------------------|
-------------------------|--------------------------------|
--8----8--8--8--8--8--8--|--10----10--10--10--10--10--10--|
--6----6--6--6--6--6--6--|---8-----8---8---8---8---8---8--|
-------------------------|--------------------------------|
-------------------------|--------------------------------|


   Q     E   E   E   E   E   E      Q     E   E   E   E   E   E
--------------------------------|--------------------------------|
--------------------------------|--------------------------------|
--12----12--12--12--12--12--12--|--13----13--13--13--13--13--13--|
--10----10--10--10--10--10--10--|--11----11--11--11--11--11--11--|
--------------------------------|--------------------------------|
--------------------------------|--------------------------------|


  E  E  E  E  E  E  E  E     E  E  E  E  E  E  E  E
--------------------------|--------------------------|
--------------------------|--------------------------|
--------------8--8--8--8--|--8--8--8--8--8--8--8--8--|
--6--6--6--6--8--8--8--8--|--6--6--6--6--8--8--8--8--|
--6--6--6--6--6--6--6--6--|--------------6--6--6--6--|
--4--4--4--4--------------|--------------------------|


  E  E  E  E  E  E  E  E     E  E  E  E  E  E  E  E
--------------------------|--------------------------|
--------------------------|--------------------------|
--------------8--8--8--8--|--6--6--6--6--8--8--8--8--|
--6--6--6--6--8--8--8--8--|--4--4--4--4--8--8--8--8--|
--6--6--6--6--6--6--6--6--|--------------6--6--6--6--|
--4--4--4--4--------------|--------------------------|


  E  E  E  E  E  E  E  E     E  E  E  E  E  E  E  E
--------------------------|--------------------------|
--------------------------|--------------------------|
--------------8--8--8--8--|--8--8--8--8--8--8--8--8--|
--6--6--6--6--8--8--8--8--|--6--6--6--6--8--8--8--8--|
--6--6--6--6--6--6--6--6--|--------------6--6--6--6--|
--4--4--4--4--------------|--------------------------|


  E  E  E  E  E  E  E  E     E  E  E  E  E  E  E  E     W
--------------------------|--------------------------|-------------------|
--------------------------|--------------------------|-------------------|
--------------8--8--8--8--|--6--6--6--6--8--8--8--8--|--8----------------|
--6--6--6--6--8--8--8--8--|--4--4--4--4--8--8--8--8--|--6----------------|
--6--6--6--6--6--6--6--6--|--------------6--6--6--6--|-------------------|
--4--4--4--4--------------|--------------------------|-------------------|


  W                   W                   H.           E.  T. X
-------------------|-------------------|------------------------|
-------------------|-------------------|------------------------|
--L----------------|--L----------------|--L------------L---L--L-|
--L----------------|--L----------------|--L------------L---L--L-|
-------------------|-------------------|------------------------|
-------------------|-------------------|------------------------|


  W                   W                   W
-------------------|-------------------|-------------------|
-------------------|-------------------|-------------------|
--8----------------|--L----------------|--L----------------|
--6----------------|--L----------------|--L----------------|
-------------------|-------------------|-------------------|
-------------------|-------------------|-------------------|


  H.           E.  T. X    Q    E  E  E  E  E  E     Q    E  E  E  E  E  E
------------------------|-------------------------|-------------------------|
------------------------|-------------------------|-------------------------|
--L------------L---L--L-|--8----8--8--8--8--8--8--|--8----8--8--8--8--8--8--|
--L------------L---L--L-|--6----6--6--6--6--6--6--|--6----6--6--6--6--6--6--|
------------------------|-------------------------|-------------------------|
------------------------|-------------------------|-------------------------|


  Q    E  E  E  E  E  E     Q    E  E  E  E  E  E     Q    E  E  E  E  E  E
-------------------------|-------------------------|-------------------------|
-------------------------|-------------------------|-------------------------|
--8----8--8--8--8--8--8--|--8----8--8--8--8--8--8--|--8----8--8--8--8--8--8--|
--6----6--6--6--6--6--6--|--6----6--6--6--6--6--6--|--6----6--6--6--6--6--6--|
-------------------------|-------------------------|-------------------------|
-------------------------|-------------------------|-------------------------|


  Q    E  E  E  E  E  E     Q    E  E  E  E  E  E     Q    E  E  E  E  E  E
-------------------------|-------------------------|-------------------------|
-------------------------|-------------------------|-------------------------|
--8----8--8--8--8--8--8--|--8----8--8--8--8--8--8--|--8----8--8--8--8--8--8--|
--6----6--6--6--6--6--6--|--6----6--6--6--6--6--6--|--6----6--6--6--6--6--6--|
-------------------------|-------------------------|-------------------------|
-------------------------|-------------------------|-------------------------|


  Q    E  E  E  E  E  E      Q     E   E   E   E   E   E
-------------------------|--------------------------------|
-------------------------|--------------------------------|
--8----8--8--8--8--8--8--|--10----10--10--10--10--10--10--|
--6----6--6--6--6--6--6--|---8-----8---8---8---8---8---8--|
-------------------------|--------------------------------|
-------------------------|--------------------------------|


   Q     E   E   E   E   E   E      Q     E   E   E   E   E   E
--------------------------------|--------------------------------|
--------------------------------|--------------------------------|
--12----12--12--12--12--12--12--|--13----13--13--13--13--13--13--|
--10----10--10--10--10--10--10--|--11----11--11--11--11--11--11--|
--------------------------------|--------------------------------|
--------------------------------|--------------------------------|


  Q    E  E  E  E  E  E      Q     E   E   E   E   E   E
-------------------------|--------------------------------|
-------------------------|--------------------------------|
--8----8--8--8--8--8--8--|--10----10--10--10--10--10--10--|
--6----6--6--6--6--6--6--|---8-----8---8---8---8---8---8--|
-------------------------|--------------------------------|
-------------------------|--------------------------------|


   Q     E   E   E   E   E   E      Q     E   E   E   E   E   E
--------------------------------|--------------------------------|
--------------------------------|--------------------------------|
--12----12--12--12--12--12--12--|--13----13--13--13--13--13--13--|
--10----10--10--10--10--10--10--|--11----11--11--11--11--11--11--|
--------------------------------|--------------------------------|
--------------------------------|--------------------------------|


  E  Q    E  E  Q    E      E   Q     E   E   Q     E
------------------------|------------------------------|
------------------------|------------------------------|
--8--8----8--8--8----8--|--10--10----10--10--10----10--|
--6--6----6--6--6----6--|---8---8-----8---8---8-----8--|
------------------------|------------------------------|
------------------------|------------------------------|


   E   Q     E   E   Q     E      E   Q     E   E   Q     E
------------------------------|------------------------------|
------------------------------|------------------------------|
--12--12----12--12--12----12--|--13--13----13--13--13----13--|
--10--10----10--10--10----10--|--11--11----11--11--11----11--|
------------------------------|------------------------------|
------------------------------|------------------------------|


  E  Q    E  E  Q    E      E   Q     E   E   Q     E
------------------------|------------------------------|
------------------------|------------------------------|
--8--8----8--8--8----8--|--10--10----10--10--10----10--|
--6--6----6--6--6----6--|---8---8-----8---8---8-----8--|
------------------------|------------------------------|
------------------------|------------------------------|


   E   Q     E   E   Q     E      E   Q     E   E   Q     E
------------------------------|------------------------------|
------------------------------|------------------------------|
--12--12----12--12--12----12--|--13--13----13--13--13----13--|
--10--10----10--10--10----10--|--11--11----11--11--11----11--|
------------------------------|------------------------------|
------------------------------|------------------------------|


  E  Q    E  E  Q    E      E   Q     E   E   Q     E
------------------------|------------------------------|
------------------------|------------------------------|
--8--8----8--8--8----8--|--10--10----10--10--10----10--|
--6--6----6--6--6----6--|---8---8-----8---8---8-----8--|
------------------------|------------------------------|
------------------------|------------------------------|


   E   Q     E   E   Q     E      E   Q     E   E   Q     E
------------------------------|------------------------------|
------------------------------|------------------------------|
--12--12----12--12--12----12--|--13--13----13--13--13----13--|
--10--10----10--10--10----10--|--11--11----11--11--11----11--|
------------------------------|------------------------------|
------------------------------|------------------------------|


  E  Q    E  E  Q    E      E   Q     E   E   Q     E
------------------------|------------------------------|
------------------------|------------------------------|
--8--8----8--8--8----8--|--10--10----10--10--10----10--|
--6--6----6--6--6----6--|---8---8-----8---8---8-----8--|
------------------------|------------------------------|
------------------------|------------------------------|


   E   Q     E   E   Q     E      Q     Q     Q    Q       Q
------------------------------|-------------------------|-------||
------------------------------|-------------------------|-------||
--12--12----12--12--12----12--|--13----12----10----8----|--8----||
--10--10----10--10--10----10--|--11----10-----8----6----|--6----||
------------------------------|-------------------------|-------||
------------------------------|-------------------------|-------||
            
Submit corrections

comments powered by Disqus
↑ Back to top | Choking Victim Tabs for Apple Pie And Police State. Lyrics for acoustic guitar and electric guitar. 1 Tablatures and chords are parodies/interpretations of the original songs. You may use it for private study, scholarship, research or language learning purposes only