>
 >
Run To Paradise 3

Run To Paradise 3 Guitar Tabs

Choirboys - Run To Paradise 3 chords, tabs, tablatures, lyrics

Guitar lessons | Add/correct | Request | Top 50 tabs Artists:  A B C D E F G H I J K L M N O P Q R S T U V W X Y Z 0-9

Run To Paradise 3 Guitar Tabs – Choirboys

CD, Sheet music, Poster

Do you like Run To Paradise 3? Share with your friends now
Bass TabsChordsTabsTabs v2Tabs v3Ukulele
Hate the song love the solo.

e|-------12-10-9-7-9~-----------------------------14-12---------------------|
B|10----9------------------------------12-14-15-12--------------------------|
G|--9-7---------------9-9-7-9-999~---14-------------------------------------|
D|--------------------------------------------------------------------------|
A|--------------------------------------------------------------------------|
E|--------------------------------------------------------------------------|

e|21-22-21\12-12-1212~12\1---------------------------------------------------|
B|---------------------------------------------------------------------------|
G|---------------------------------------------------------------------------|
D|---------------------------------------------------------------------------|
A|---------------------------------------------------------------------------|
E|---------------------------------------------------------------------------|





Comments


Popular Choirboys tabs & chords
Never Gonna Die Bass Tabs
Run To Paradise Bass Tabs
Run To Paradise Chords
Run To Paradise Tabs
Run To Paradise 1 Tabs
Run To Paradise Ukulele


Song lyrics



↑ Back to top | Tablatures and chords are parodies/interpretations of the original songs. You may use it for private study, scholarship, research or language learning purposes only
© 2014 AZChords.com Contact us | Privacy policy | DMCA | Add/correct tabs | Request tabs | Top 50 tabs