>
 >
Run To Paradise 1

Run To Paradise 1 Guitar Tabs

Choirboys - Run To Paradise 1 chords, tabs, tablatures, lyrics

Guitar lessons | Add/correct | Request | Top 50 tabs Artists:  A B C D E F G H I J K L M N O P Q R S T U V W X Y Z 0-9

Run To Paradise 1 Guitar Tabs – Choirboys

CD, Sheet music, Poster

Do you like Run To Paradise 1? Share with your friends now
Bass TabsChordsTabsTabs v2Tabs v3Ukulele
clean intro
e|-------------------------|-------------------------|
B|-------------------------|-------------------------|
G|-----9---7---9---9-9-----|-----9---7*--------------|
D|-7---9---7---9---9-9--X3-|-7---9---7*----------7---|
A|-7---7---5---7---7-7-----|-7---7---5*----------7---|
E|-5-------.-------.-.-----|-5-------------------5---|

Distorted intro 
e|-------------------------|-------------------------|
B|-------------------------|-------------------------|
G|-----9---7---9---9-9-----|-----9---7*--------------| 
D|-7---9---7---9---9-9--X3-|-7---9---7*----------7---| X2
A|-7---7---5---7---7-7-----|-7---7---5*----------7---|
E|-5-------.-------.-.-----|-5-------------------5---|

Verse 1 Palm muted 
e|-------------------------|-------------------------|
B|-------------------------|-------------------------|
G|-----9---7---9---9-9-----|-----9---7*--------------| 
D|-7---9---7---9---9-9--X3-|-7---9---7*----------7---| X2
A|-7---7---5---7---7-7-----|-7---7---5*----------7---|
E|-5-------.-------.-.-----|-5-------------------5---|

Distorted Instrumental 
e|-------------------------|-------------------------|
B|-------------------------|-------------------------|
G|-----9---7---9---9-9-----|-----9---7*--------------| 
D|-7---9---7---9---9-9--X3-|-7---9---7*----------7---|
A|-7---7---5---7---7-7-----|-7---7---5*----------7---|
E|-5-------.-------.-.-----|-5-------------------5---|

Verse 2 Palm muted 
e|-------------------------|-------------------------|
B|-------------------------|-------------------------|
G|-----9---7---9---9-9-----|-----9---7*--------------| 
D|-7---9---7---9---9-9--X3-|-7---9---7*--------------| X2
A|-7---7---5---7---7-7-----|-7---7---5*--------------|
E|-5-------.-------.-.-----|-5-----------------------|

Pre-Chorus 
e|-------------------------|-------------------------|
B|-------------------------|-------------------------|
G|-------------------------|-------------------------| 
D|-7-7---X-X-X-X-X-X-X-X-X-|-X-X-X-X-X-X-X-X-X-X-X---| X2
A|-7-7---X-X-X-X-X-X-X-X-X-|-X-X-X-X-X-X-X-X-X-X-X---|
E|-5-5---X-X-X-X-X-X-X-X-X-|-X-X-X-X-X-X-X-X-X-X-X---|

Chorus
e|-------------------------|-------------------------|
B|-------------------------|-------------------------|
G|----2*-------------------|----2*-------------------|
D|-7772*---------------X3--|-7772*-------55555555555-| X2
A|-7772*-------------------|-7772*-------55555555555-|
E|-555---------------------|-555---------33333333333-|

Verse 3
e|-------------------------|-------------------------|
B|-------------------------|-------------------------|
G|-------------------------|-------------------------| 
D|-7-7---X-X-X-X-X-X-X-X-X-|-7-7-X-X-X-X-X-X-X-X-X---| X2 
A|-7-7---X-X-X-X-X-X-X-X-X-|-7-7-X-X-X-X-X-X-X-X-X---|
E|-5-5---X-X-X-X-X-X-X-X-X-|-5-5-X-X-X-X-X-X-X-X-X---|

Distorted Bridge 
e|-------------------------|-------------------------|
B|-------------------------|-------------------------|
G|-----9---7---9---9-9-----|-----9---777777777777777-| 
D|-7---9---7---9---9-9--X3-|-7---9---777777777777777-| 
A|-7---7---5---7---7-7-----|-7---7---555555555555555-|
E|-5-------.-------.-.-----|-5-----------------------|

Solo Played Along With Repeat Of Intro Distorted
e|-------------------------|-------------------------|
B|-------------------------|-------------------------|
G|-------------------------|-------------------------|
D|-------------------------|-------------------------|
A|-------------------------|-------------------------|
E|-------------------------|-------------------------|

e|-------------------------|-------------------------|
B|-------------------------|-------------------------|
G|-------------------------|-------------------------|
D|-------------------------|-------------------------|
A|-------------------------|-------------------------|
E|-------------------------|-------------------------|

Pre-Chorus 
e|-------------------------|-------------------------|
B|-------------------------|-------------------------|
G|-------------------------|-------------------------| 
D|-7-7---X-X-X-X-X-X-X-X-X-|-X-X-X-X-X-X-X-X-X-X-X---| X2
A|-7-7---X-X-X-X-X-X-X-X-X-|-X-X-X-X-X-X-X-X-X-X-X---|
E|-5-5---X-X-X-X-X-X-X-X-X-|-X-X-X-X-X-X-X-X-X-X-X---|

Chorus
e|-------------------------|-------------------------|
B|-------------------------|-------------------------|
G|----2*-------------------|----2*-------------------|
D|-7772*---------------X3--|-7772*-------55555555555-| X4
A|-7772*-------------------|-7772*-------55555555555-|
E|-555---------------------|-555---------33333333333-|

clean Outro
e|-------------------------|-------------------------|
B|-------------------------|-------------------------|
G|-----9---7---9---9-9-----|-----9---7*--------------|
D|-7---9---7---9---9-9--X3-|-7---9---7*----------7---|
A|-7---7---5---7---7-7-----|-7---7---5*----------7---|  
E|-5-------.-------.-.-----|-5-------------------5---|


Lyrics:

INTRO

VERSE 1

Baby!
You were always gonna be the one
You only ever did it just for fun
But you run to paradise

Jenny!
I'll meet you at the grocery store
You dont need a friend when you can score
You run to paradise

INSTRUMENTAL

VERSE 2

Charlie!
We were always best of friends
Stick together and defend
But you run to paradise

And Mumma!
Now don't you worry bout' me anymore
When i see you crying at the door
And i run to paradise

PRE-CHORUS

Thats right they had it all worked out
You were young and blonde
And you could never do wrong
Thats right they were so suprised
You Opened their eyes up, opened their eyes up
Opened their eyes up

CHORUS

You don't want anyone
You don't want anyone
Don't tell me this is paradise
Open your eyes up
You don't want anyone
You don't want anyone
Don't tell me this is paradise

VERSE 3

Good times, Why'd i let ém slip away
Why'd i let them slip away
Cause i lived in paradise

BRIDGE

Run to paradise
Run to paradise
Run to paradise

SOLO

PRE-CHORUS

Jesus says it's gonna be alright
He's gonna pack my bag
So i can walk in the light
You don't mind if i abuse myself
So i can hold my head up, hold my head up
Hold my head up

CHORUS

You don't want anyone
You don't want anyone
Don't tell me this is paradise
Open your eyes up
You don't need anyone
You don't need anyone
You'll tell me this is paradise

You don't want anyone
You don't want anyone
You'll tell me this is paradise
You don't need anyone
You don't want anyone
Don't tell me this is paradise

OUTRO





Comments


Popular Choirboys tabs & chords
Never Gonna Die Bass Tabs
Run To Paradise Bass Tabs
Run To Paradise Chords
Run To Paradise Tabs
Run To Paradise 3 Tabs
Run To Paradise Ukulele


Song lyrics



↑ Back to top | Tablatures and chords are parodies/interpretations of the original songs. You may use it for private study, scholarship, research or language learning purposes only
© 2014 AZChords.com Contact us | Privacy policy | DMCA | Add/correct tabs | Request tabs | Top 50 tabs