» » »

Choirboys, Run To Paradise Bass tabs (ver.1)

Artists:  A B C D E F G H I J K L M N O P Q R S T U V W X Y Z # 

Run To Paradise Bass tabs (ver.1)

Choirboys Tabs
 Rating:
4/5 (4 votes)
Run To Paradise lessons Tabs too difficult? Try these video lessons and learn fast
1
                Intro (BABY!)  x1
G|----------------------------------|
D|----------------------------------|
A|----------------------------------|
E|5-5.--------------5-5~~~----------|

Main Riff  x1
G|-------------------------------------------------------|
D|-------------------------------------------------------|
A|----7---5---7-----------7---5---7-----------7---5---7--|
E|5-0---0---0---024-0-5-0---0---0---024-0-5-0---0---0----|

G|-------------------|
D|-------------------|
A|----------7---5~-/-|
E|024-0-5-0---0------|

Verse  x1
G|----------------------------------|
D|----------------------------------|
A|----------------------------------|
E|5>--024-5>--02020-5>--024-5>--024-|

G|-------------------------------|
D|-------------------------------|
A|-------------------------------|
E|5>--024-5>--02020-5>--024-5>---|

Pre Chorus
G|--------------------------------------7-9---77-|
D|----------------------------------7-9-----9----|
A|55---------------5555-----777-999--------------|
E|---000-2222-5555------000----------------------|

G|------------------------------------------------|
D|777---------------------------------------------|
A|----9999-7777-5555---------------------7-77-7-7-|
E|-------------------0000-0-0000-0-222-7----------|

Chorus  x2 (you don't need anyone)
G|----------------------------------------------------|
D|----------------------------------------------------|
A|-----------5-4-2-0---------------------5-4-2-0-7777-|
E|5-55-5-0-7---------4-2-0-2--5-55-5-0-7--------------|

(Dont tell me, this is paradise)
G|--------------------------------|
D|--------------------------------|
A|----------------------------5-7-|
E|5-55-4-44-2-22-0-00-5555555-----|

Verse
G|-------------------------------|
D|-------------------------------|
A|-------------------------------|
E|5>--024-5>--02020-5>--024-5>---|

Bass Solo (Let guitar go through twice)
G|-------------------------------------------------|
D|----6-7--7/8-6--4-----------7--7/8-6--4----------|
A|7-9---------------7-5-4-----------------55555555-|
E|------------------------7-5----------------------|

Main Riff  x1

Pre Chorus  x1

Chorus till end.

Golden oldie. Great fun song to play. Chorus might be a bit
off but other than that i reckon its pretty perfect.
Please rate and comment if ya want cheers.
            
Submit corrections

comments powered by Disqus
↑ Back to top | Choirboys Bass for Run To Paradise. Lyrics for acoustic guitar and electric guitar. 1 Tablatures and chords are parodies/interpretations of the original songs. You may use it for private study, scholarship, research or language learning purposes only